Song name
# A B C D E F G H I J K L M N O P Q R S T U V W X Y Z

Jefferson Airplane - Volunteers tab

Highlighted       Show chord diagrams
-------------------------------------------------------------------------------
			     Volunteers - Jefferson Airplane
-------------------------------------------------------------------------------
Tabbed by: Silent
Email: pbc_rick@hotmail.com

Tuning: standard

      G   F   C
e|----3---1---0--------------------------------------------------------------|
B|----3---1---1--------------------------------------------------------------|
G|----4---2---0--------------------------------------------------------------|
D|----5---3---2--------------------------------------------------------------|
A|----5---3---3--------------------------------------------------------------|
E|----3---1------------------------------------------------------------------|

   ^   ^              ^  ^  ^  v  ^  v  ^  v   ^  ^ 
e|-----3--x--x--x--x--1--1--0--0--0--0--0--0---3--3--------------------------|
B|-----3--x--x--x--x--1--1--1--1--1--1--1--1---3--3--------------------------|
G|-----4--x--x--x--x--2--2--0--0--0--0--0--0---4--4--------------------------|
D|-5---5--x--x--x--x--3--3--2--2--2--2--2--2---5--5--------------------------|
A|-5---5--x--x--x--x--3--3--3--3--3--3--3--3---5--5--------------------------|
E|-3---3--x--x--x--x--1--1---------------------3--3--------------------------|

G                        F         
Look whats happening out in the streets
C                G
Got a revolution got to revolution
G              F
Hey Im dancing down the streets
C                F
Got a revolution got to revolution
G                   F
Aint it amazing all the people I meet
C                F
Got a revolution got to revolution
G
One generation got old
F
One generation got soul
G                                     F
This generation got no destination to hold

Pick up the cry
G                    F
Hey now its time for you and me
C                G
Got a revolution got to revolution
G                         F
Come on now were marching to the sea
C                G
Got a revolution got to revolution
G                        
Who will take it from you
F                      C              G
We will and who are we
G
We are volunteers of america
C
volunteers of america
G
volunteers of america
C
volunteers of americaaaaaaaaa


During the solo play like in the verse , and same in the last verse.
It seems to sound pretty good (to me at least :p ).

Have fun!




  v Play up
  ^ Play down
| x  Mute note
===============================================================================
Tap to rate this tab
 
# A B C D E F G H I J K L M N O P Q R S T U V W X Y Z