Song name
# A B C D E F G H I J K L M N O P Q R S T U V W X Y Z

Jeffree Star - Prisoner tab

Prisoner - Jeffree Star
CAPO 2ND FRET (Standard EADGBe Tuning)

Verse 1
I got No regrets, and i remeber the day that we met
e|-----------------------------------|
B|-----------------------------------|
G|-----------------------------------|
D|---2---2---2---2---5---5---5---5---|
A|---2---2---2---2---5---5---5---5---|
E|-000-000-000-000-333-333-333-333---|
There was no way that i could forget you
e|-----------------------------------|
B|-----------------------------------|
G|-----------------------------------|
D|---2---2---2---2---5---5---5---5---|
A|---2---2---2---2---5---5---5---5---|
E|-000-000-000-000-333-333-222-223---|
and i crept, into your room while you slept
e|-----------------------------------|
B|-----------------------------------|
G|-----------------------------------|
D|---2---2---2---2---5---5---5---5---|
A|---2---2---2---2---5---5---5---5---|
E|-000-000-000-000-333-333-333-333---|

e|-----------------------------------|
B|-----------------------------------|
G|-----------------------------------|
D|---2---2---2---2---5---5-------5---|
A|---2---2---2---2---5---5-------5---|
E|-000-000-000-000-333-333-2222223---|

Prechorus
e|--------------------------------------------------------------------|
B|--------------------------------------------------------------------|
G|-5-5-5-5-5-5-5-5-5-5-5-5-5-5-5-5-7-7-7-7-7-7-7-7-7-7-7-7-7-7-7-7----|
D|-5-5-5-5-5-5-5-5-5-5-5-5-5-5-5-5-7-7-7-7-7-7-7-7-7-7-7-7-7-7-7-7----|
A|-3-3-3-3-3-3-3-3-3-3-3-3-3-3-3-3-5-5-5-5-5-5-5-5-5-5-5-5-5-5-5-5----|
E|--------------------------------------------------------------------|
I know it seems so wrong, But im just a Lovesick Criminal

Chorus
           Em            C
You can arrest me baby, I don't wanna leave
G                 D
Lock me up, throw away the key
Em                       C                G                 D
I don't care if I'm in trouble deep, I'm addicted to your love
             Em               C
I'll be your prisoner...
             G                D
I'll be your prisoner tonight
C  C  C   C    C                       D
I, I ,I - I'm under your spell and I just can't get enough


Verse 2
e|-----------------------------------|
B|-----------------------------------|
G|-----------------------------------|
D|---2---2---2---2---5---5---5---5---|
A|---2---2---2---2---5---5---5---5---|
E|-000-000-000-000-333-333-333-333---|

e|-----------------------------------|
B|-----------------------------------|
G|-----------------------------------|
D|---2---2---2---2---5---5---5---5---|
A|---2---2---2---2---5---5---5---5---|
E|-000-000-000-000-333-333-222-223---|

e|-----------------------------------|
B|-----------------------------------|
G|-----------------------------------|
D|---2---2---2---2---5---5---5---5---|
A|---2---2---2---2---5---5---5---5---|
E|-000-000-000-000-333-333-333-333---|

e|-----------------------------------|
B|-----------------------------------|
G|-----------------------------------|
D|---2---2---2---2---5---5-------5---|
A|---2---2---2---2---5---5-------5---|
E|-000-000-000-000-333-333-2222223---|

Prechorus
e|--------------------------------------------------------------------|
B|--------------------------------------------------------------------|
G|-5-5-5-5-5-5-5-5-5-5-5-5-5-5-5-5-7-7-7-7-7-7-7-7-7-7-7-7-7-7-7-7----|
D|-5-5-5-5-5-5-5-5-5-5-5-5-5-5-5-5-7-7-7-7-7-7-7-7-7-7-7-7-7-7-7-7----|
A|-3-3-3-3-3-3-3-3-3-3-3-3-3-3-3-3-5-5-5-5-5-5-5-5-5-5-5-5-5-5-5-5----|
E|--------------------------------------------------------------------|


Chorus
           Em            C
You can arrest me baby, I don't wanna leave
G                 D
Lock me up, throw away the key
Em                       C                G                 D
I don't care if I'm in trouble deep, I'm addicted to your love
             Em               C
I'll be your prisoner...
             G                D
I'll be your prisoner tonight
C  C  C   C    C                       D
I, I ,I - I'm under your spell and I just can't get enough

e|------------------------------------------------|
B|------------------------------------------------|
G|-----------------5-5-5-5-5-5-5-5----------------|
D|-2-2-2-2-2-2-2-2-5-5-5-5-5-5-5-5----------------|
A|-2-2-2-2-2-2-2-2-3-3-3-3-3-3-3-3----------------|
E|-0-0-0-0-0-0-0-0--------------------------------|
Oh, I'm prepared for all the consequences...
e|------------------------------------------------|
B|------------------------------------------------|
G|-----------------5-5-5-5-5-5-5-5----------------|
D|-2-2-2-2-2-2-2-2-5-5-5-5-5-5-5-5----------------|
A|-2-2-2-2-2-2-2-2-3-3-3-3-3-3-3-3----------------|
E|-0-0-0-0-0-0-0-0--------------------------------|
Believe me, I have the worst intentions

e|------------------------------------------------|
B|------------------------------------------------|
G|-----------------5-5-5-5-5-5-5-5----------------|
D|-2-2-2-2-2-2-2-2-5-5-5-5-5-5-5-5----------------|
A|-2-2-2-2-2-2-2-2-3-3-3-3-3-3-3-3----------------|
E|-0-0-0-0-0-0-0-0--------------------------------|
Oh, I'm prepared for all the consequences...
e|------------------------------------------------|
B|------------------------------------------------|
G|-----------------5-5-5-5-5-5-5-5----------------|
D|-2-2-2-2-2-2-2-2-5-5-5-5-5-5-5-5----------------|
A|-2-2-2-2-2-2-2-2-3-3-3-3-3-3-3-3----------------|
E|-0-0-0-0-0-0-0-0--------------------------------|
Believe me, I have the worst intentions

(Hope it was good, my 1st tab so...)
Danke
Luv, Tatie <3
Tap to rate this tab
 
# A B C D E F G H I J K L M N O P Q R S T U V W X Y Z