Song name
# A B C D E F G H I J K L M N O P Q R S T U V W X Y Z

Jejaview - Paperskin tab

Paperskin by JEJAVIEW
tabbed by Marc Godffrey Z. Arquilita

Legend:
. = Palm Mute
()= Optional Note
h = Hammer On
p = Pull Off
~ = Suspend Note
/ = Slide
b = Bend

Gtr 01: Intro/Delay
|--------------------------------5-----5-----5---3---6---5---3-|
|-----6----6----6----6----6--6-6---6-6---6-6---6---6---6---6---|
|---5----5----5----5----5--------------------------------------|
|-0----0----0----0----0----0-----------------------------------|
|--------------------------------------------------------------|
|--------------------------------------------------------------|

|--------------------------------5-----5-----5---3---6---5---3-|
|-----6----6----6----6----6--6-6---6-6---6-6---6---6---6---6---|
|---5----5----5----5----5--------------------------------------|
|-0----0----0----0----0----0-----------------------------------|
|--------------------------------------------------------------|
|--------------------------------------------------------------|


Gtr 01: Delay 
|--------------------------------5-----5-----5---3---6---5---3-|
|-----6----6----6----6----6--6-6---6-6---6-6---6---6---6---6---|
|---5----5----5----5----5--------------------------------------|
|-0----0----0----0----0----0-----------------------------------|
|--------------------------------------------------------------|
|--------------------------------------------------------------|

Gtr 02: Clean
|------------------------------------------------------|
|---6---8---6~--------6------1-1-1-1~--1-1-1~--1-1-1~--|
|-5---5-----------5------5~--3-3-3-3~--3-3-3~--3-3-3~--|
|---------------3---3--------0-0-0-0~--0-0-0~--0-0-0~--|
|------------------------------------------------------|
|------------------------------------------------------|

Gtr 01: Delay
|---------------(0)-8-6-5-------------5-----5-----5---3---6---5---3-|
|-----6----6--------------8-5-6---6-6---6-6---6-6---6---6---6---6---|
|---5----5----5-----------------------------------------------------|
|-0----0----0-------------------------------------------------------|
|-------------------------------------------------------------------|
|-------------------------------------------------------------------|

Gtr 02: Clean
|-------------------------------------------------------|
|---6---8---6~--------6---------------------------------|
|-5---5-----------5------5~---7-7-7-7~--7-7-7~--7-7-7~--|
|---------------3---3---------7-7-7-7~--7-7-7~--7-7-7~--|
|-----------------------------5-5-5-5~--5-5-5~--5-5-5~--|
|-------------------------------------------------------|

Gtr 01: Delay
|--------------------------------5-----5-----5---3---6---5---3-|
|-----6----6----6----6----6--6-6---6-6---6-6---6---6---6---6---|
|---5----5----5----5----5--------------------------------------|
|-0----0----0----0----0----0-----------------------------------|
|--------------------------------------------------------------|
|--------------------------------------------------------------|

Gtr 02: Clean
|------------------------------------------------------|
|---6---8---6~--------6------1-1-1-1~--1-1-1~--1-1-1~--|
|-5---5-----------5------5~--3-3-3-3~--3-3-3~--3-3-3~--|
|---------------3---3--------0-0-0-0~--0-0-0~--0-0-0~--|
|------------------------------------------------------|
|------------------------------------------------------|

Gtr 01: Delay.................Clean
|----------------------------|----|
|-----6----6----6----6----6--|-6~-|
|---5----5----5----5----5----|-5~-|
|-0----0----0----0----0------|-x--|
|----------------------------|-5~-|
|----------------------------|----|

Gtr 02: Clean
|--------------------------------|
|---6---8---6~--------6----------|
|-5---5-----------5------5~---7~-|
|---------------3---3---------7~-|
|-----------------------------5~-|
|--------------------------------|

Gtr 01: Distortion
|--------------------|
|-6-6-6666-6-6-66666-|
|-5-5-5555-5-5-55555-|
|-x-x-xxxx-x-x-xxxxx-|
|-5-5-5555-5-5-55555-|
|--------------------|

Gtr 02: Distortion
|--------------------|
|--------------------|
|-7-7-7777-7-7-77777-|
|-7-7-7777-7-7-77777-|
|-5-5-5555-5-5-55555-|
|--------------------|

Gtr 01: SOLO/distortion 
|--------------------------------------------------------------------| 
|---------------------------------------------------------10h11p10---|
|-/10~-9~----10-9---------------------------10~-9~---12~----------10-|
|--------10~------10~--/10-7h8p7-7h8p7-------------10~---------------|
|--------------------------------------8/10~-------------------------|
|--------------------------------------------------------------------|

|-----------13----12----10--------------|--------------------|
|----13~----------------------13----11/-|--------------------|
|-10-----10----10----10----10----10-----|--------------------|
|---------------------------------------|-0-0-0000-0-0-00000-|
|---------------------------------------|-0-0-0000-0-0-00000-|
|---------------------------------------|-0-0-0000-0-0-00000-|

Gtr 02: Distortion (STRUMMING NOT SHOWN)
|-----------|------------|--------------------|
|-----------|------------|--------------------|
|-D---F--Bb-|-D---C---Bb-|--------------------|
|-0---3---8-|-0---10---8-|-0-0-0000-0-0-00000-|
|-0---3---8-|-0---10---8-|-0-0-0000-0-0-00000-|
|-0---3---8-|-0---10---8-|-0-0-0000-0-0-00000-|

Verse 1:
Gtr 01: Distortion
|--------------------------------------------|
|-6~--7~--10~--13-11-10/--6~--5-6-7----------|
|------------------------------------5~--(7)-| X2
|--------------------------------------------|
|--------------------------------------------|
|--------------------------------------------|

Verse 1:
Gtr 02: Distortion
D               F                     Bb
  You wanted to fall and just take me away
|--------------------------------------------------------|
|--------------------------------------------------------|
|--------------------------------------------------------|
|-000~000~00~---333~333~33~----888~888~88~---888~888~88~-|
|-000~000~00~---333~333~33~----888~888~88~---888~888~88~-|
|-000~000~00~---333~333~33~----888~888~88~---888~888~88~-|
  ..  ..  .     ..  ..  .      ..  ..  .     ..  ..  .
          D                  C              Bm
From your eyes i see I'm the one who is taken
|----------------------------------------------------------------|
|----------------------------------------------------------------|
|----------------------------------------------------------------|
|-000~000~00~---101010~101010~1010~----888~888~88~---888~888~88~-|
|-000~000~00~---101010~101010~1010~----888~888~88~---888~888~88~-|
|-000~000~00~---101010~101010~1010~----888~888~88~---888~888~88~-|
  ..  ..  .     . .    . .    .        ..  ..  .     ..  ..  .
D                     F                      Bb
  I cant't tell you i know all the things to say
|--------------------------------------------------------|
|--------------------------------------------------------|
|--------------------------------------------------------|
|-000~000~00~---333~333~33~----888~888~88~---888~888~88~-|
|-000~000~00~---333~333~33~----888~888~88~---888~888~88~-|
|-000~000~00~---333~333~33~----888~888~88~---888~888~88~-|
  ..  ..  .     ..  ..  .      ..  ..  .     ..  ..  .
   D                 C              Bb
Forever you'll be Forever you'll be so
|----------------------------------------------------------------|
|----------------------------------------------------------------|
|----------------------------------------------------------------|
|-000~000~00~---101010~101010~1010~----888~888~88~---888~888~88~-|
|-000~000~00~---101010~101010~1010~----888~888~88~---888~888~88~-|
|-000~000~00~---101010~101010~1010~----888~888~88~---888~888~88~-|
  ..  ..  .     . .    . .    .        ..  ..  .     ..  ..  .

Pre-Chorus:
Gtr 01: Distortion
|-------------------------------------------------|
|-------------------------------------------------|
|-7~7777~-/9~9999~-/10~10101010~-12-12-1414141414-|
|-x-xxxx~--x-xxxx---x--x-x-x-x---x--x--x-x-x-x-x--|
|-5~5555~-/7~7777~-/8-~8-8-8-8-~-10-10-1212121212-|
|-------------------------------------------------|

Gtr 02: Distortion
|-------------------------------------|
|-------------------------------------|
|-------------------------------------|
|-0-0000~-/3-3333~-/8-8888~-8-8-88888-|
|-0-0000~-/3-3333~-/8-8888~-x-x-xxxxx-|
|-0-0000~-/3-3333~-/8-8888~-8-8-88888-|

Chorus:
Gtr 01: Distortion
|---------------------------|
|---------------------------|
|---------------------------|
|-000~000~000~-7-7-88888888-|
|-000~000~000~-7-7-88888888-|
|-000~000~000~-7-7-88888888-|

|---------------------------------------------------|
|---------------------------------------------------|
|-7-7777-9-9999/1212/10101010/1212/141414/15/141414-|
|-x-xxxx-x-xxxx/x-x-/x-x-x-x-/x-x-/x-x-x-/x-/x-x-x--|
|-5-5555-7-7777/1010/8-8-8-8-/1010/121212/13/121212-|
|---------------------------------------------------|

|---------------------------|
|---------------------------|
|-10-/12-/14~---10-/12-/14~-|
|-x---x---x-----x---x---x---|
|-8--/10-/12~---8--/10-/12~-|
|---------------------------|

Chorus:
Gtr 02: Distortion
     D         A      Bb
Hold on to what we've got
|---------------------------|
|---------------------------|
|---------------------------|
|-000~000~000~-7-7-88888888-|
|-000~000~000~-7-7-88888888-|
|-000~000~000~-7-7-88888888-|

         D    C           Bb
and i'll bleed to make it last
|---------------------------------|
|---------------------------------|
|---------------------------------|
|-00000-101010101010-888888888888-|
|-00000-101010101010-888888888888-|
|-00000-101010101010-888888888888-|

           Dm C Bb   Dm C Bb 
To make it last
|--------------------|
|--------------------|
|--------------------|
|-12-10-8~--12-10-8~-|
|-12-10-8~--12-10-8~-|
|-12-10-8~--12-10-8~-|

Post Chorus:
Gtr 01 and Gtr 02: 
|------------------------------------------------|
|------------------------------------------------|
|------------------------------------------------|
|------------------------------------------------|
|------------------------------------------------|
|-0-10h12121212121212-10h1212121212-10h12121212/-|
         . . . . . .       . . . .       . . .
Verse 2:
Gtr 01: Distortion
|--------------------------------------------|
|-6~--7~--10~--13-11-10/--6~--5-6-7----------|
|------------------------------------5~--(7)-| X2
|--------------------------------------------|
|--------------------------------------------|
|--------------------------------------------|

Verse 2:
Dm                F                   Bb
  I'm letting you know just to be the same
|--------------------------------------------------------|
|--------------------------------------------------------|
|--------------------------------------------------------|
|-000~000~00~---333~333~33~----888~888~88~---888~888~88~-|
|-000~000~00~---333~333~33~----888~888~88~---888~888~88~-|
|-000~000~00~---333~333~33~----888~888~88~---888~888~88~-|
  ..  ..  .     ..  ..  .      ..  ..  .     ..  ..  .
     Dm                   C                   Bb
Only eyes will see if its heart we're embracing
|----------------------------------------------------------------|
|----------------------------------------------------------------|
|----------------------------------------------------------------|
|-000~000~00~---101010~101010~1010~----888~888~88~---888~888~88~-|
|-000~000~00~---101010~101010~1010~----888~888~88~---888~888~88~-|
|-000~000~00~---101010~101010~1010~----888~888~88~---888~888~88~-|
  ..  ..  .     . .    . .    .        ..  ..  .     ..  ..  .

Dm                 F                      Bb
  I can tell you i know all the things to say
|--------------------------------------------------------|
|--------------------------------------------------------|
|--------------------------------------------------------|
|-000~000~00~---333~333~33~----888~888~88~---888~888~88~-|
|-000~000~00~---333~333~33~----888~888~88~---888~888~88~-|
|-000~000~00~---333~333~33~----888~888~88~---888~888~88~-|
  ..  ..  .     ..  ..  .      ..  ..  .     ..  ..  .

   Dm     C   Bb    
So let me be alone
|----------------------------------------------------------------|
|----------------------------------------------------------------|
|----------------------------------------------------------------|
|-000~000~00~---101010~101010~1010~----888~888~88~---888~888~88~-|
|-000~000~00~---101010~101010~1010~----888~888~88~---888~888~88~-|
|-000~000~00~---101010~101010~1010~----888~888~88~---888~888~88~-|
  ..  ..  .     . .    . .    .        ..  ..  .     ..  ..  .

Pre-Chorus:
Gtr 01: Distortion
|-------------------------------------------------|
|-------------------------------------------------|
|-7~7777~-/9~9999~-/10~10101010~-12-12-1414141414-|
|-x-xxxx~--x-xxxx---x--x-x-x-x---x--x--x-x-x-x-x--|
|-5~5555~-/7~7777~-/8-~8-8-8-8-~-10-10-1212121212-|
|-------------------------------------------------|

Gtr 02: Distortion
|-------------------------------------|
|-------------------------------------|
|-------------------------------------|
|-0-0000~-/3-3333~-/8-8888~-8-8-88888-|
|-0-0000~-/3-3333~-/8-8888~-x-x-xxxxx-|
|-0-0000~-/3-3333~-/8-8888~-8-8-88888-|

Chorus:
Gtr 01: Distortion
|---------------------------|
|---------------------------|
|---------------------------|
|-000~000~000~-7-7-88888888-|
|-000~000~000~-7-7-88888888-|
|-000~000~000~-7-7-88888888-|

|---------------------------------------------------|
|---------------------------------------------------|
|-7-7777-9-9999/1212/10101010/1212/141414/15/141414-|
|-x-xxxx-x-xxxx/x-x-/x-x-x-x-/x-x-/x-x-x-/x-/x-x-x--|
|-5-5555-7-7777/1010/8-8-8-8-/1010/121212/13/121212-|
|---------------------------------------------------|

|---------------------------|
|---------------------------|
|-10-/12-/14~---10-/12-/14~-|
|-x---x---x-----x---x---x---|
|-8--/10-/12~---8--/10-/12~-|
|---------------------------|

Chorus:
Gtr 02: Distortion
     D         A      Bb
Hold on to what we've got
|---------------------------|
|---------------------------|
|---------------------------|
|-000~000~000~-7-7-88888888-|
|-000~000~000~-7-7-88888888-|
|-000~000~000~-7-7-88888888-|

         D    C           Bb
and i'll bleed to make it last
|---------------------------------|
|---------------------------------|
|---------------------------------|
|-00000-101010101010-888888888888-|
|-00000-101010101010-888888888888-|
|-00000-101010101010-888888888888-|

           Dm C Bb   Dm C Bb 
To make it last
|--------------------|
|--------------------|
|--------------------|
|-12-10-8~--12-10-8~-|
|-12-10-8~--12-10-8~-|
|-12-10-8~--12-10-8~-|

Interlude:
Gtr 01: Delay 
|--------------------------------5-----5-----5---3---6---5---3-|
|-----6----6----6----6----6--6-6---6-6---6-6---6---6---6---6---|
|---5----5----5----5----5--------------------------------------|
|-0----0----0----0----0----0-----------------------------------|
|--------------------------------------------------------------|
|--------------------------------------------------------------|

Gtr 02: Clean
|------------------------------------------------------|
|---6---8---6~--------6------1-1-1-1~--1-1-1~--1-1-1~--|
|-5---5-----------5------5~--3-3-3-3~--3-3-3~--3-3-3~--|
|---------------3---3--------0-0-0-0~--0-0-0~--0-0-0~--|
|------------------------------------------------------|
|------------------------------------------------------|

Gtr 01: Delay 
|--------------------------------5-----5-----5---3---6---5---3-|
|-----6----6----6----6----6--6-6---6-6---6-6---6---6---6---6---|
|---5----5----5----5----5--------------------------------------|
|-0----0----0----0----0----0-----------------------------------|
|--------------------------------------------------------------|
|--------------------------------------------------------------|

Gtr 02: Clean
|--------------------------------|
|---6---8---6~--------6----------|
|-5---5-----------5------5~---7~-|
|---------------3---3---------7~-|
|-----------------------------5~-|
|--------------------------------|


Bridge:
Gtr 01: Delay 
|--------------------------------5-----5-----5---3---6---5---3-|
|-----6----6----6----6----6--6-6---6-6---6-6---6---6---6---6---|
|---5----5----5----5----5--------------------------------------|
|-0----0----0----0----0----0-----------------------------------|
|--------------------------------------------------------------|
|--------------------------------------------------------------|

Gtr 02: Clean
Take me home...
|------------------------------------------------------|
|---6---8---6~--------6------1-1-1-1~--1-1-1~--1-1-1~--|
|-5---5-----------5------5~--3-3-3-3~--3-3-3~--3-3-3~--|
|---------------3---3--------0-0-0-0~--0-0-0~--0-0-0~--|
|------------------------------------------------------|
|------------------------------------------------------|

Gtr 01: Delay 
|--------------------------------5-----5-----5---3---6---5---3-|
|-----6----6----6----6----6--6-6---6-6---6-6---6---6---6---6---|
|---5----5----5----5----5--------------------------------------|
|-0----0----0----0----0----0-----------------------------------|
|--------------------------------------------------------------|
|--------------------------------------------------------------|

Gtr 02: Clean                 
Take me home...                  (Distortion)
|--------------------------------|----------|
|---6---8---6~--------6----------|----------|
|-5---5-----------5------5~---7~-|----------|
|---------------3---3---------7~-|-8~888888-|
|-----------------------------5~-|-8~888888-|
|--------------------------------|-8~888888-|
                                     ......
Guitar Solo: D F Bb  D C Bb   x2
Gtr 01: Distortion
|-10~~-----13----12----10----------------------|
|-13b~-1010--1010--1010--1010/11-13-13b-13-11~-|
|----------------------------------------------|
|----------------------------------------------|
|----------------------------------------------|
|----------------------------------------------|

|-10~~-----13----12----10----------------------|
|-13b~-1010--1010--1010--1010/11-13-13b-13-11~-|
|----------------------------------------------|
|----------------------------------------------|
|----------------------------------------------|
|----------------------------------------------|

|-10~~-----13----12----10--------------------------------|
|-13b~-1010--1010--1010--1010/11-13-13b-13-11-10~-10h11~-|
|--------------------------------------------------------|
|--------------------------------------------------------|
|--------------------------------------------------------|
|--------------------------------------------------------|

|-----------------------------17p15p13-17p15p13-17p15p13-17p15p13-|
|-----------------------------------------------------------------|
|------10--10-12-12/15-12--12-------------------------------------|
|-10h12--12--------------15---------------------------------------|
|-----------------------------------------------------------------|
|-----------------------------------------------------------------|

|-17p15p13-17p15p13-17p15p13-17p15p13-17-17/18-17-----|
|-------------------------------------------------17~-|
|-----------------------------------------------------|
|-----------------------------------------------------|
|-----------------------------------------------------|
|-----------------------------------------------------|

|----------------------------------|
|-15-17-17-17b-17-15-17-17b-17-15~-|
|----------------------------------|
|----------------------------------|
|----------------------------------|
|----------------------------------|

|---------------------------------------------------------------|
|---------------------------------------------------------------|
|-----14----14----14----14-15-15-15/17~(17)-(17)-(17)-(17)-(17)-|
|---15----15----15----15----------------------------------------|
|-17----17----17----17------------------------------------------|
|---------------------------------------------------------------|

Outro:
Gtr 01 & Gtr 02: Distortion
   F     D        C       Bb
We sail away Hold on Hold on
|-------------------------------------------|
|-------------------------------------------|
|----------------------5~5555555-3~33333333-|
|-33333-333-0-0xx00000-5~5555555-3~33333333-|
|-33333-333-0-0xx00000-3~3333333-1~11111111-|
|-33333-333-0-0xx00000----------------------|

   F     D        C       Bb
We sail away Hold on Hold on
|-------------------------------------------|
|-------------------------------------------|
|----------------------5~5555555-3~33333333-|
|-33333-333-0-0xx00000-5~5555555-3~33333333-|
|-33333-333-0-0xx00000-3~3333333-1~11111111-|
|-33333-333-0-0xx00000----------------------|

     D F Bb(hold)
Hold on
|------------------|
|------------------|
|------------------|
|-0~~~-3~~~-/8~~~--|
|-0~~~-3~~~-/8~~~--|
|-0~~~-3~~~-/8~~~--|

Note:
*Im NOT SURE with the Strumming, I bet you can Figure it out on your own.
*Im just 97-99% sure about my cover, because Itís all Ears.
Tap to rate this tab
 
# A B C D E F G H I J K L M N O P Q R S T U V W X Y Z