Song name
# A B C D E F G H I J K L M N O P Q R S T U V W X Y Z

Jennifer Rostock - Feuer tab

Tuning: 1/2 Down (I play this tuning most of the times...)



Verse (Strophe)

|------------------------------------------------------------|
|------------------------------------------------------------|
|--5----7------------------------7---------------------------|
|--5----7--- 5x ---5------7------7---------------------------|
|--3----5----------5------7------5 1x------------------------|
|------------------3 8x---5 8x-------------------------------|

Play this till chorus


Chorus (Refrain)

|--------------------------------------------------------------------------|
|--------------------------------------------------------------------------|
|----------------7---------------------------------7-----------------------|
|--3------7------7------8---- 2x ----5------7------7-----------------------|
|--3------7------5 8x---8------------5------7------5 1x--------------------|
|--1 8x---5 8x----------6 8x---------3 8x---5 8x---------------------------|

After this Verse again

Than play chorus but in the end you play 4 times the D Power Chord
like this:

Chorus 2 (Refrain2)

|--------------------------------------------------------------------------|
|--------------------------------------------------------------------------|
|----------------7----------------------------------7--7---7--7------------|
|--3------7------7------8---- 2x --5------7---------7--7---7--7------------|
|--3------7------5 8x---8----------5------7---------5--5---5--5------------|
|--1 8x---5 8x----------6 8x-------3 8x---5 8x-----------------------------|



Bridge

|--------------------------------------------------------------------------|
|--------------------------------------------------------------------------|
|-------------------5-----------------7-----9---------------7--------------|
|-5-----7-----3-----5-----5-----7-----7-----9-------5-------7-------8------|
|-5-----7-----3-----3 8x--5-----7-----5 8x--7 8x----5-------5 1x----8--->--|
|-3 8x--5 8x--1 8x--------3 8x--5 8x----------------3 1x------------6-1x---|

> = Fade out


Outro


|----------------------------|--------------------------------|------------|
|----------------------------|--------------------------------|------------|
|-------7------9------5------|---------7-------------7--------|------------|
|-5-----7------9------5------|--5------7------7------7--------|-----5------|
|-5-----5 8x---7 8x---3 8x---|--5------5 8x---7------5 8x-----|-----5------|
|-3 8x-----------------------|--3 8x----------5 8x------------|-----3------|

Listen to the Sond to know when you have to play which part...
I think the first one 3x and than the last one till
the end where you play the G Chord once and the song ends...!


http://www.my-artist.net/jenniferrostock-derfilm/
http://www.myspace.com/jenniferrostock
this band is signed on Warner / Planet Roc
Tap to rate this tab
# A B C D E F G H I J K L M N O P Q R S T U V W X Y Z