Song name
# A B C D E F G H I J K L M N O P Q R S T U V W X Y Z

Jeremy Camp - Give Me Jesus tab

"Give Me Jesus" By Jeremy Camp
From the album Beyond Measure


Capo 5th fret
Standard Tuning

-----------------------------------------------------------------------------
I DO NOT TAKE CREDIT FOR THIS IS STUMBLED UPON IT IN THE INTERNET AND UG DID
NOT HAVE A TAB FOR THIS. CAN'T REMEMBER WHERE I FOUND IT.
-----------------------------------------------------------------------------
This does not show the number of times each string is played, as it is just a guide
for the progression of the notes throughout the song.  This tab also doesnt show
each and every string played, as there are strings picked here and there before
each chord transition.  Listen to the song to get the timing of chord changes
down, and add notes between each chord as you see fit! :)

Intro:

----------3--|
---3------3--|
---0h2-------|   play 4x
--------0----|
-------------|
---3------3--|

Verses:

----------3----------2----------0----------3------|
---3------3--3----------3----------3-------3------|
---0h2-------0h2--2-----0h2--------0h2------------|
--------0------------0-------0----------0---------|
--------------------------------0-----------------|
---3------3--3----------3----------3-------3------|


-----------2----------0-----------3-----------3----|
---3----------3----------3--------3--3--------3----|
---0h2--2-----0h2--------0h2---------0h2-----------|
-----------0-------0----------0-----------0--------|
----------------------0---------0-----------0------|
---3----------3----------3--------3--3--------3----|

Chorus:

---2-----2-----2-----0-----0-----0-----0-----0-----|
---3-----3-----3-----3-----3-----3-----3-----3-----|
------2-----2-----2-----2-----2-----2-----2-----2--|
---------------------------------------------------|
---------------------------------------------------|
---------------------------------------------------|


-------------------------------2----------------3--|
---3-------3-----------3-------------------3----3--|
---0h2-----2-----2-----0h2--2--------2-----0h2-----|
--------0-----0-----0----------0--0-----0----------|
---------------------------------------------------|
---3-------3-----------3-------------------3----3--|
Tap to rate this tab
# A B C D E F G H I J K L M N O P Q R S T U V W X Y Z