Guitaretab - guitar tabs
Song name
# A B C D E F G H I J K L M N O P Q R S T U V W X Y Z

Jerry Lee Lewis - What Id Say tab

--------------------What I'd say(INTRO) By: Jerry Lew Lewis------------------

Tabbed By: VanHalenRockr13

Email: Consolecheats@zoomshare.com

Tuner: EADGBE

This is my first submit, but i'm definitely sure this is right
Be easy on me!
Notes: I prefer fingering this for a much easier sound, But it sounds more like him on
piano(Even more when he plays in London on the Electric Piano)But you can strum to let
notes ring a little, but it requires different finger positions, you can also try it on 
notes, add on to my notes for me :)
[ Tab from: http://www.guitaretab.com/j/jerry-lee-lewis/87908.html ]
E-------------------------------------------------------------------------]
B-------------------------------------------------------------------------]
G--------3--5---------3--5---------1--3---------1--3-------3--5-------3--5]
D------5------------5------------3------------3-----------5----------5----]
A----3------------3------------1------------1------------3----------3-----]
E-------------------------------------------------------------------------]

E--------------------------]
B--------------------------]
G--------------------------]*Repeat 1 more time*
D------3--5-------1--3-----]
A-----5----------3---------]
E----3----------1----------]
Related for What Id Say tab