Guitaretab - guitar tabs
Song name
# A B C D E F G H I J K L M N O P Q R S T U V W X Y Z

Jessey James - Shoes tab

---------------------------------------------------------------------
			     SHOES  Jesse James
---------------------------------------------------------------------

Tabbed by: Gillies

Tuning: Standard

Intro/chorus

e|------------------------------------------------------------------|
B|------------------------------------------------------------------|
G|-7-x-x-------4-x-x------------------------------------------------|
D|-7-x-x-7-x-x-4-x-x-4-x-x-5-x-x-7-x-x------------------------------|
A|-5-x-x-5-x-x-2-x-x-4-x-x-5-x-x-7-x-x------------------------------|
E|-------5-x-x-------2-x-x-3-x-x-5-x-x------------------------------|

Verse
[ Tab from: http://www.guitaretab.com/j/jessey-james/30735.html ]
e|------------------------------------------------------------------|
B|------------------------------------------------------------------|
G|------------------------------------------------------------------|
D|-7-7-7-7-7-9-9-9-9-9----------------------------------------------|
A|-5-5-5-5-5-7-7-7-7-7-9-9-9-9-9------5------7----------------------|
E|---------------------7-7-7-7-7------3------5----------------------|

Solo  behind horns

e|------------------------------------------------------------------|
B|-7-5-5-7-5-5-7-5-5-7-5-5-8-5--------------------------------------|
G|------------------------------------------------------------------|
D|------------------------------------------------------------------|
A|------------------------------------------------------------------|
E|------------------------------------------------------------------|
Shoes chords by Jessey James