Song name
# A B C D E F G H I J K L M N O P Q R S T U V W X Y Z

Jesu - Medicine tab

Artist: Jesu
Song: Medicine
Album: Conqueror

Tuning: AEADGBe (dropped A)

Justin Broadrick uses a 7 string but the same sound can be achieved by
restringing a 6 string with the lower 6 strings of a 7 string set.

He also layers several guitar parts on the recordings. I've only tabbed the
most obvious parts. Further embelishments can be worked out by the player.

Intro/Verse
  1 + 2 + 3 + 4 +    1 + 2 + 3 + 4 +
e------------------|------------------|
B------------------|------------------|
G------------------|------------------|
D------------------|------------------|
A---------------5--|---5-----5---5----|
E-----------3-2----|-2-----2---2---2--|
A-0-0-0-0-0--------|------------------|

Break
  A
e------------------|
B------------------|
G------------------|
D------------------|
A-0----------------|
E-0----------------|
A-0----------------|

Outro
  D                  A                  B                  G
  1 + 2 + 3 + 4 +    1 + 2 + 3 + 4 +    1 + 2 + 3 + 4 +    1 + 2 + 3 + 4 +
e------------------|------------------|------------------|------------------|
B------------------|------------------|------------------|------------------|
G------------------|------------------|------------------|------------------|
D------------------|------------------|------------------|------------------|
A-5---9-7-----9-7--|-0---9-7-----9-7--|-2---5-7-----5-7--|-10--5-7-5-5-577--|
E-5----------------|-0----------------|-2----------------|-10---------------|
A-5----------------|-0----------------|-2----------------|-10---------------|
                                                                       h
h=hammer on

Tabbed by Aleks
www.facebook.com/hesychasmsa
www.youtube.com/crystalred333
Tap to rate this tab
# A B C D E F G H I J K L M N O P Q R S T U V W X Y Z