Song name
# A B C D E F G H I J K L M N O P Q R S T U V W X Y Z

Jesus Adrian Romero - Ayer Te Vi tab

capo on 1st fret.


intro:
e--------------1-3-3------------------3p1-1----6-6-6-----|
b--------4--4--1-----4-4--------4--4--1-----4--6-----6-6-|
g------1----1--1--------------1----1--1--------7---------|
d----5------5--3------------5------5--3--------8---------|
a--6--------6--3----------6--------6--3--------8---------|
e-----------6--1-------------------6--1--------6---------|

verses:
e--------------4---1---4---1---1--|
b--------4--4--1---1---1---1---3--|
g------1----1--1---1---1---1---3--|  (2x)
d----5------5--1---3---1---3---3--|
a--6--------6--3---3---3---3---1--|
e-----------6--4---1---4---1---1--|

chorus:
G#  Eb  G# Cm  G#  Eb  G#  Cm  C#  G#  Bb

bridge:
G#  Eb  G#  Eb
Tap to rate this tab
# A B C D E F G H I J K L M N O P Q R S T U V W X Y Z