Song name
# A B C D E F G H I J K L M N O P Q R S T U V W X Y Z

Jesus And Mary Chain - April Skies chords

Highlighted       Show chord diagrams
APRIL SKIES - JESUS AND MARY CHAIN
(1987) DARKLANDS




E	


E                               E E E A
HEY HONEY WHAT YOU TRYING TO SAY
		
                                    A A A B
AS I STAND HERE DON'T YOU WALK AWAY

         A             B       E
AND THE WORLD COMES TUMBLING DOWN

                              E E E A
HAND IN HAND IN A VIOLENT LIFE

                                  A A A B
MAKING LOVE ON THE EDGE OF A KNIFE

         A             B       E
AND THE WORLD COMES TUMBLING DOWN


         A
AND IT'S HARD FOR ME TO SAY

           E
AND IT'S AHRD FOR ME TO STAY

            A
I'M GOING DOWN TO BE BY MYSELF

            E
I'M GOING BACK FOR THE GOOD OF MY HEALTH

              B
AND THERE'S ONE THING I COULDN'T DO

       A
SACRIFICE MYSELF TO YOU

       E
SACRIFICE



SOLO:


E|-----------------------------------------|
B|-----------------------------------------|
G|-----------------------------------------|
D|-2-2-2--/6-4-6--------2-2-2--/6-4-6-/9---|
A|---------------4----4------------------4-|
E|-----------------------------------------|

E|-----------------------------------------|
B|-----------------------------------------|
G|-----------------------------------------|
D|-11-9-----------9--11-9----------9-11-11-|
A|------11--11-11---------11-11-11---------|
E|-----------------------------------------|

E|-----------------------|
B|-----------------------|
G|-----------------------|
D|-9-9-9\6-4-2-4-6-4-2-2-|
A|-----------------------|
E|-----------------------|






E
BABY BABY I JUST CAN'T SEE

A
JUST WHAT YOU MEAN TO ME

E
I TAKE MY AIM AND I FAKE MY WORDS

A
I'M JUST YOUR LONG TIME CURSE

B
AND IF YOU WALK AWAY

A
I CAN'T TAKE IT



			     E
BUT THAT'S THE WAY THAT YOU ARE

				A
AND THAT'S THE THINGS THAT YOU SAY

			 E
BUT NOW YOU'VE GONE TOO FAR

			 A
WITH ALL THE THINGS YOU SAY

B
GET BACK TO WHERE YOU COME FROM

	 A
I CAN'T HELP IT


		 E
UNDER THE APRIL SKIES

                 A
UNDER THE APRIL SKY

                 E
UNDER THE APRIL SUN

                 A
UNDER THE APRIL SKY



        E
00H-OOH-000H
        A
00H-OOH-000H
        E
00H-OOH-000H
        A
00H-OOH-000H


E
SUN GROWS COLD SKY GETS BLACK

	  A
AND YOU BROKE ME UP


AND NOW YOU WON'T COME BACK

E
SHAKING HAND, LIFE IS DEAD

	A
AND A BROKEN HEART AND A SCREAMING HEAD

     E
HEY HEY




UNDER THE APRIL SKIES

                 A
UNDER THE APRIL SKY

                 E
UNDER THE APRIL SUN

                 A
UNDER THE APRIL SKY

Tap to rate this tab
 
# A B C D E F G H I J K L M N O P Q R S T U V W X Y Z