Song name
# A B C D E F G H I J K L M N O P Q R S T U V W X Y Z

Jesus And Mary Chain - Save Me tab

Artist: American Hi-Fi
Song: Save Me
Album: the Art of Losing
Tuning: Drop D
Composer: Stacy Jones

Intro/Verse
|-----------------------------------------------------------------|
|-----------------------------------------------------------------|
|-8-8-8-8-8-8-8-8-8-8-8-8-8-8-6-6-8-8-8-8-8-8-8-8-8-8-8-8-6-6-6-6-|
|-x-x-x-x-x-x-x-x-x-x-x-x-x-x-x-x-x-x-x-x-x-x-x-x-x-x-x-x-x-x-x-x-|
|-6-6-6-6-6-6-6-6-6-6-6-6-6-6-4-4-6-6-6-6-6-6-6-6-6-6-6-6-4-4-4-4-|
|-----------------------------------------------------------------|

|-----------------------------------------------------------------|
|-----------------------------------------------------------------|
|-4-4-4-4-4-4-4-4-4-4-4-4-4-4-4-4-3-3-3-3-3-3-3-3-3-3-3-3-3-3-3-3-|
|-x-x-x-x-x-x-x-x-x-x-x-x-x-x-x-x-x-x-x-x-x-x-x-x-x-x-x-x-x-x-x-x-|
|-2-2-2-2-2-2-2-2-2-2-2-2-2-2-2-2-1-1-1-1-1-1-1-1-1-1-1-1-1-1-1-1-|
|-----------------------------------------------------------------|

Chorus
|---------------------------------------------------|
|---------------------------------------------------|
|---5--5--5--5-8-8-6-6-7-7---5--5--5--5-8-8-6-6-7-7-|
|---5--5--5--5-8-8-6-6-7-7---5--5--5--5-8-8-6-6-7-7-|
|---3--3--3--3-6-6-4-4-5-5---3--3--3--3-6-6-4-4-5-5-|
|---------------------------------------------------|

|----------------------------------------------------------|
|----------------------------------------------------------|
|---5--5--5--5-8-8-6-6-7-7-4-4-4-4-4-4-4-4-2-2-2-2-2-2-2-2-|
|---5--5--5--5-8-8-6-6-7-7-4-4-4-4-4-4-4-4-2-2-2-2-2-2-2-2-|
|---3--3--3--3-6-6-4-4-5-5-2-2-2-2-2-2-2-2-0-0-0-0-0-0-0-0-|
|----------------------------------------------------------|

Bridge
Coming Soon!

Solo
|-----------------------------------------------------------|
|-----------------------------------------------------------|
|-13-131313-131313131313-13-13-13-131313-131313131313-13-13-|
|--x--x-x-x--x-x-x-x-x-x--x--x--x--x-x-x--x-x-x-x-x-x--x--x-|
|-11-111111-111111111111-11-11-11-111111-111111111111-11-11-|
|-----------------------------------------------------------|

|--------------------------------------------|
|--------------------------------------------|
|-12-12-12--12-12-12-12-12-13b---12b---11b---|
|--------------------------------------------|
|--------------------------------------------|
|--------------------------------------------|

|-----------------------------------------------------------|
|-----------------------------------------------------------|
|-13-131313-131313131313-13-13-13-131313-131313131313-13-13-|
|--x--x-x-x--x-x-x-x-x-x--x--x--x--x-x-x--x-x-x-x-x-x--x--x-|
|-11-111111-111111111111-11-11-11-111111-111111111111-11-11-|
|-----------------------------------------------------------|

|-----------------------------------------------------------|
|-----------------------------------------------------------|
|-13b---12b--14b---13b---12b--14b---14b-14b---14b-14b--13b--|
|-----------------------------------------------------------|
|-----------------------------------------------------------|
|-----------------------------------------------------------|
Tap to rate this tab
# A B C D E F G H I J K L M N O P Q R S T U V W X Y Z