Song name
# A B C D E F G H I J K L M N O P Q R S T U V W X Y Z

Jesus Culture - Show Me Your Glory tab

Tuning: Standard

| ~   let ring/emphasize
| /   slide up

All guitars tuned E A D G B e
 {Gtr 1 - electric

Mystic intro, really sounds great.  This is just the beginning of the song, but the rest 
of the verses follow the same picking pattern and just cycle through the chords.  See 
my chord sheet for this song if you want to pick through the verses like the lead guitarist does!

[Intro Riff]
e|--------------------------------|
B|---------------7~---------------|
G|--------7~------------7~--------|
D|----0------0------0------0---0--|
A|--------------------------------|
E|--7---7------7------7------7----|

e|--------------------------------|
B|---------------0~---------------|
G|--------2~------------2~--------|
D|----0------0------0------0---0--|
A|--------------------------------|
E|--3---3------3------3------3----|

e|----------------------------------|
B|-----------------7~---------------|
G|----------7~------------7~--------|
D|------0------0------0------0---0--|
A|----------------------------------|
E|--3/7---7------7------7------7----|

e|--------------------------------|
B|---------------0~---------------|
G|--------2~------------2~--------|
D|----0------0------0------0---0--|
A|--------------------------------|
E|--3---3------3------3------3----|


That's it! Follow that rhythm through all the verse chords and it'll sound great, just 
like the song.  God bless!
Tap to rate this tab
# A B C D E F G H I J K L M N O P Q R S T U V W X Y Z