Song name
# A B C D E F G H I J K L M N O P Q R S T U V W X Y Z

Jethro Tull - Up To Me tab

Jehtro Tull - Up To Me


RIFF:
E|-----------------------------------------------------
B|-----------------------------------------------------
G|-----------------------------------------------------
D|--------------5------------------5---7-7-5-----------
A|-7-7-7-5--------7----------7-7-5-----------7---------
E|---------7--3----------------------------------------




E|-12/15-12--------------------!---------------------------------
B|----------15-15--------------!---------------------------------
G|-----------------12-14-12----!-------------------------12------
D|--------------------------14-!----------12-14-12----------14---
A|-----------------------------!-12-13-14----------14-12---------
E|-----------------------------!---------------------------------

Em 
Take you to the cinema
      D 
and leave you in a Wimpy Bar,
    C 
you tell me that we've gone too far,
      Am           D 
come running up to me.
Em 
Make the scene at Cousin Jack's,
        D 
leave him put the bottles back,
C 
mends his glasses that I cracked,
      Am              D 
well that's one up to me.



E|-------------------------------------
B|-------------------------------------
G|-------------------------------------
D|-------12--------12--------12----9---
A|-12-14-----12-14-----12-14----14/7---
E|-------------------------------------

Buy a silver cloud to ride,
pack the tennis club inside,
trouser cuffs hung far too wide,
well it was up to me.
Tyres down on your bicicle,
your nose feels like an icicle,
the yellow fingered smoky girl,
is looking up to me.















E|-------------------!-------------
B|-8-8-8-8-8-8-8-8-8-!-12--12/10---
G|-9-9-9-9-9-9-9-9-9-!-------------
D|-9-9-9-9-9-9-9-9-9-!-------------
A|-7-7-7-7-7-7-7-7-7-!-------------
E|-------------------!-------------

Em                 A7      Em 
Well, I'm a common working man,
Em     A7      Em                A7 
with a half of bitter, bread and jam,
Am9       A7      C       A7             C 
and if it pleases me I'll put one on you man,
Am9      A7     C     A7 C    C  Em 
when the copper fades away.



E|-15/17-17--15-12-15-12-------------------------------------
B|-----------------------15-12----------12-15-12-------------
G|-----------------------------14-12-14-----------14-12------
D|------------------------------------------------------14---
A|-----------------------------------------------------------
E|-----------------------------------------------------------

The rainy season comes to pass,
the day-glo pirate sinks at last,
and if I laughed a bit to fast
well it was up to me.
Take you to the cinema
and leave you in a Wimpy Bar,
you tell me that we've gone too far,
come running up to me.



E|-------------------------------- 
B|-------------------------------- 
G|-------------12-14-15-14-12/9---
D|-------12-14--------------------
A|-12-14--------------------------
E|--------------------------------

E|--------------------------------
B|--------------------------------
G|--------------------------------
D|-------------------5-9----------
A|-7-7-7-5---------7---7----------
E|---------7--3-------------------
Tap to rate this tab
# A B C D E F G H I J K L M N O P Q R S T U V W X Y Z