Song name
# A B C D E F G H I J K L M N O P Q R S T U V W X Y Z

Jethro Tull - Sweet Dream tab

----------------------------------------------------------------------------
                        jethro tull   sweet dream
----------------------------------------------------------------------------
tabbed by:chris sisson
email:stlmusician314@yahoo.com
info:i havent seen this tune tabbed out correctly much so here's my version this is how 
barre plays it in concert listen to it and you will get it email me any questions or comments

tunning:standard
riff 1
e|--------------------------------------------------------------------------|
b|--------------------------------------------------------------------------|
g|--------------------------------------------9--9--------------------------|
d|------------------------5-----4----2-s-3----7--7--------------------------|
a|------------5---7----7------------------------------repeat----------------|
e|----5-h-7-------0----0----0-----0-----------------------------------------|

 0:35
e|--------------------------------------------------------------------------|
b|--------------------4----4---4---4---4------------------------------------|
g|----9---9---9---9---4----4---4---4---4----------4------6------------------|
d|----7---7---7---7---4----4---4---4---4----2-----5------7----repeat riff 1-|
a|--------------------2----2---2---2---2----2-----5------7------------------|
e|------------------------------------------0-----3------5------------------|

 0:47
e|---1----0----3----2-------------------------------------------------------|
b|---0----1----3----3-------------------------------------------------------|
g|---2----2----0----2-----repeat riff 1-------------------------------------|
d|---0----2----0----0-------------------------------------------------------|
a|---0----0----2------------------------------------------------------------|
e|-------------3------------------------------------------------------------|

 1:02
e|---5-----------------------5---5---5---------3----------------------------|
b|---5-----------------------5---5---5----5----3----------------------------|
g|---5-----------------------5---5---5----5----4------let ring--------------|
d|---7-----build up ---------7---7---7----5----5----------------------------|
a|---7-----------------------7---7---7----3----5----------------------------|
e|---5-----------------------5---5---5---------3----------------------------|
     p.m ^ ^ ^ ^ ^ ^ ^ ^
 1:08
e|--5-------3--3--3-------------5--------------------------------------------|
b|--5--5-5--3--3--3-------------5--5--7--7---7--7----------------------------|
g|--5--5-5--4--4--4-------------5--5--7--7---7--7----------------------------|
d|--7--5-5--5--5--5-------------7--5--7--7---7--7-------------repeat---------|
a|--7--3-3--5--5--5-------------7--3--5--5---5--5----------------------------|
e|--5-------3--3--3---5--3--5---5-------------------5--3--5------------------|
Tap to rate this tab
# A B C D E F G H I J K L M N O P Q R S T U V W X Y Z