Song name
# A B C D E F G H I J K L M N O P Q R S T U V W X Y Z

Jethro Tull - A New Day Yesterday tab

#----------------------------------PLEASE NOTE----------------------------------#
# This file is the author's own work and represents their interpretation of the #
# song. You may only use this file for private study, scholarship, or research. #
#-------------------------------------------------------------------------------#



A new Day Yesterday


Table of Contents:
b=Bend
p=Pull off
H=Hammer On
\=Slide Down
/=Slide Up
hpfm=Hammer and Pull off really fast and many times.  Listen to the
Song to figure out how fast and how many times to do that.


Intro:
(Guitar 2)
(Riff 1)
E-----------------------------------------------------------
B-----------------------------------------------------------
G-----------------------------------------------------------
D----------------------------5--------------------------5---
A-----------5-6-7--7--7p5---------------5-6-7--7--7p5-------
E-----5-6-7---------------7-------5-6-7---------------7-----



(Guitar 2 then Continues to play Riff 1, while Guitar 1 plays Riff 2)

(Guitar 2)	(Guitar 1)----->
		(Riff 2)
E------------------7\----------------------7\-----------------
B------------------9\----------------------9\-----------------
G------------------9\------------12--------9\------------12---
D------------------9\--14p12---------------9\--14p12----------
A-----------5-6----7\--------14------------7\--------14-------
E-----5-6-7---------------------------------------------------


(Guitar 1, cont.)
E-----7\-----------------
B-----9\-----------------
G-----9\------------12---   X2
D-----9\--14p12----------
A-----7\--------14-------
E------------------------



Verse:
(Guitar 2, Plays this during the Verses)

E--------------------------------
B--------------------------------
G--------------------------------  X4
D-----------------5--------------
A-----7--7-7p5-------------------
E--------------7-----8-7-5-7-3---



(Guitar 1(Riff 2), Plays this during the Verses)

E-----7\-----------------
B-----9\-----------------
G-----9\------------12---   X4
D-----9\--14p12----------
A-----7\--------14-------
E------------------------


Guitar Solo:

E--------------------------------------12----12--------------------
B-----------------------------------12----15-----------------------
G---------------------12------14b16--------------14b16--12h14p12---
D-----14p12--14p12-14-----14---------------------------------------
A------------------------------------------------------------------
E------------------------------------------------------------------


E-----------------------------------------------------------------------------
B-----------------------------------------------------------------------------
G-----------------------12----------------------------------12hpfm14-14hpfm16-
D--------12-------12h14-----------------------------12hpfm14------------------
A-----14----12h14----------14-12h13p12--------12h14---------------------------
E---------------------------------------15-12---------------------------------


E--------------------------15b16-15b16-14--12-12--------------------------
B-----12hpfm15-12-15b16-12------------------12----15-12-------------------
G-------------------------------------------------------14b16-12h14p12----
D-------------------------------------------------------------------------
A-------------------------------------------------------------------------
E-------------------------------------------------------------------------


E-------------------------
B--------------12---------
G--------------12---------
D--------12-14----14-14\--
A-----14------------------
E-------------------------

(Play Riff 1 and 2 again)

(This is the Flute solo section.  I generally play Riff 1 and 2, two or four
times, then I go into the next verse)


 
Outro:
				           (Hold)
E-----------------------------------7~--7~--7---
B--------8-10b12-10p8---------------9~--9~--9---
G-----/9--------------9-9p7---7-----9~--9~--9---
D---------------------------9----9--9~--9~--9---
A-----------------------------------7~--7~--7---
E-----------------------------------------------


That is A New Day Yesterday, By Jethro Tull.
This is pretty correct, though I am not completely sure about
the Outro.  If you have any questions, e-mail me at livinginthepast2@cs.com.

Have Fun!
Tap to rate this tab
# A B C D E F G H I J K L M N O P Q R S T U V W X Y Z