Guitaretab - guitar tabs
Song name
# A B C D E F G H I J K L M N O P Q R S T U V W X Y Z

Jethro Tull - To Cry You A Song tab

To Cry You a Song- Jethro Tull

Tabbed by: Alex Torelli
Email:Alextorelli@optonline.net

Tuning:

e|--------------------------------------------------------------------|
B|--------------------------------------------------------------------|
G|---3-2-3------------------------------------------------------------|
D|----------5-4-5-----------------------------------------------------|
A|-----------------5-4-5-----5-5-5--7-8---8-7-5-4-5-------------------|
E|------------------------6-------------------------------------------|

Repeat this intro 4 times then Verse:

e|-------------3----3---------------------------------------------------|
B|-------------3----3-----------------------------4-3-4-----------------|
G|-------------4----4-------------------------------------5-4-5---------|
D|-------------5----5---------------------------------------------------|
A|-------------5----5---------------------------------------------------|
E|-------------3----3---------------------------------------------------|

Flying So high,                  Try to Remember
[ Tab from: http://www.guitaretab.com/j/jethro-tull/78363.html ]
e|-------------------1-------3----------------------------------------|
B|-------------------1-------5----------------------------------------|
G|-------------------2-------5------------3-4-3-----------------------|
D|-------------------3-------5------------------5-4-5-----------------|
A|-------------------3-------3------------------------5-4-5---5-------|
E|-------------------1-------0------------------------------6---------|

How Many cigarettes did I Bring Along?!

e|-----------------3---3------------------------------------------------|
B|-----------------3---3--------------------------------4-3-4-----------|
G|-----------------4---4---------------------------------------5-4-5----|
D|-----------------5---5------------------------------------------------|
A -----------------5---5------------------------------------------------|
E -----------------3---3------------------------------------------------|

When I Get Down,                    Iíll jump in a taxi cab

e ----------------------------------------------------------------------|
B ----------------------------------------------------------------------|
G -------------------------------3-4-3----------------------------------|
D -------------------------------------5-4-5----------------------------|
A -------------------------------------------5-4-5---5ó-5-5-8ó8-7-5-4-5-|
E -------------------------------------------------6--------------------|

Driviní through London town to cry you a song.

Repeat for all other verses.

| / slide up
| \ slide down
| h hammer-on
| p pull-off
| ~ vibrato
| + harmonic
| x Mute note
Related for To Cry You A Song tab