Song name
# A B C D E F G H I J K L M N O P Q R S T U V W X Y Z

Jethro Tull - Too Old To Rock & Roll tab

From: simko@acs3.bu.edu (Peter Simko)
Subject: TAB: Too Old to Rock and Roll... by Jethro Tull


Here's some Tull:

This is Too Old to Rock and Roll too Young to Die from the
Album A Little Light Music.  It's only the first figure, but
the rest of the song is just variations on this theme.  I can't
remember if there's supposed to be a capo here or not, you'll 
figure it out.


Transcribed by Pete Simko (simko@acs.bu.edu)


--2--------------2-----3-----2p0-------------------------------
--3--------3s/5----------------------3--------3---2---3---5----
--2-----2-------------------------------------2----------------
--0-----------------0-----0-------0----------------------------
--0------------------------------------------------------------
---------------------------------------------------------------

---------------------------------------------------------0-----
-------------7----------5------------3------3---5---7----0-----
------------(7)--------(5)----------(4)-----4---4---7----0-----
----5-s/-7---------5---------0--0------------------------2-----
---------------------------------------------------------2-----
---------------------------------------------------------------

---0--0--------------0-----------------------------------------
---------0-0-0-2-3---2-----------------------------------------
---------------------2---6--5--6-s/--9--9--8--9--s/--14--14----
---------------------2-----------------------------------------
---------------------0-----------------------------------------
---------------------------------------------------------------

---------------------------------------------------------------
-------------14------------------------------------------------
---13--14------------------------------------------------------
---------------------------------------------------------------
-----------0---------------------------------------------------
---------------------------------------------------------------
Tap to rate this tab
# A B C D E F G H I J K L M N O P Q R S T U V W X Y Z