Song name
# A B C D E F G H I J K L M N O P Q R S T U V W X Y Z

Jevetta Steele - Calling You tab

-------------------------------------------------------------------------------
                             CALLING YOU - Jevetta Steele
-------------------------------------------------------------------------------
Tabbed by:PreDrag Pro
Tuning:Standard
Capo 3rd fret.


||------------------------------------|-----------------------------|
||---------------3--------------------|-------------3---------------|
||.----------0------------------------|---------0-------------------|
||.------4----------------------------|-----4-----------------------|
||---2--------------------------------|-3---------------------------|
||------------------------------------|-----------------------------|


------------------------------------|------------------------------||
---------------3--------------------|-------------3----------------||
-----------0------------------------|---------0--------------------||
-------4----------------------------|-----2------------------------||
------------------------------------|-0----------------------------||
---0--------------------------------|------------------------------||


A desert road from  Vegas to nowhere      
Some place better than  where you've been 
A coffee machine  that needs some fixin'  
In a little Cafe' just  around the bend


-------------3--------------------|-------------2-------------------|
---------1------------------------|---------3-----------------------|
-----2----------------------------|-----2---------------------------|
-1--------------------------------|---------------------------------|
----------------------------------|-3-------------------------------|
----------------------------------|---------------------------------|
 I                                                              am


-------------1--------------------|-------------0-------------------|
---------3------------------------|---------3-----------------------|
-----2----------------------------|-----1---------------------------|
----------------------------------|---------------------------------|
-2--------------------------------|---------------------------------|
----------------------------------|-0-------------------------------|
cal       -       ling         you                   can't you hear me


-------------3--------------------|-------------2-------------------|
---------5------------------------|---------3-----------------------|
-----4----------------------------|-----3---------------------------|
----------------------------------|---------------------------------|
-4--------------------------------|---------------------------------|
----------------------------------|-2-------------------------------|
 I                                                               am


-------------1--------------------|-------------0-------------------|
---------0------------------------|---------3-----------------------|
-----2----------------------------|-----1---------------------------|
----------------------------------|---------------------------------|
-2--------------------------------|---------------------------------|
----------------------------------|-0-------------------------------|
cal       -        ling         you


A hot dry wind  blows right through me 
The baby's cryin'  and  I  can't sleep
But we both know  a change is comin'
Comin' closer   so we  do release

I am calling you (I know you hear me)
I am calling you


[Solo]

----------------------------------|---------2-----------------------|
---------3---4--------------------|-------------3-------------------|
-------------5--------------------|-------------2-------------------|
-----5----------------------------|---------------------------------|
-0--------------------------------|-----0---------------------------|
----------------------------------|-2-------------------------------|


----------------------------------|---------------------------------|
-------------3--------------------|-------------4-------7-p6--4-----|
---------5------------------------|---------5--------------------5--|
-----3----------------------------|-----3---------------------------|
----------------------------------|---------------------------------|
-6--------------------------------|-6-----------2-------------------|


----------------------------------|---------------------------------|
-------------3-------3------------|-4-------4---3-------3-----------|
---------5---------------3--------|-------------------------2-------|
-----3----------------------------|-----------------0---------------|
----------------------------------|-0-------------------------------|
-6--------------------------------|---------------------------------|

I am calling you (I know you hear me)
I am calling you

A desert road from  Vegas to nowhere       
Some place better than  where you've been  
A coffee machine  that needs some fixin'   
In a little Cafe' just  around the bend    

A hot dry wind  blows right through me 
The baby's cryin'  and  I  can't sleep
And I can feel a  change is comin'
Comin' closer   so we  do release

I am calling you (I know you hear me)
I am calling you
Tap to rate this tab
# A B C D E F G H I J K L M N O P Q R S T U V W X Y Z