Jim Chappell - Gone tab

gone
by: bown


I
-----------0---------------0---------------0---------------0---------l
---------0-----0---------0-----0---------0-----0---------0-----0-----l
-------1-----1---------1-----1---------1-----1---------1-----1-------l2X
-2---2---------------2---------------4---------------4---------------l
---2---------------2---------------2---------------2-----------------l
-0---------------0---------------0---------------0-------------------l

 E               E               E9              E9


 
II
---------------0-----------------------------------------------------l
-------------0---7-----------7-7h9--5------------------------2-4-4/5-l
-----------1-------------8-----------------6-------------4-----------l
-------2-4-----------9------------------6-----6--------4-------------l
-----2-----------6------------------4--------------2-------2---------l
-0-------------------------------------------------------------------l
 E(9)            B7                 C#m            B                  

---------------------------------------------------------------------l
-2-----------------------------4-------------------------------------l
-------2-------------------4-6------4---------------------8----------l
----2-----2------------6------------------4------------------9-------l
-0-------------------6-----------------4-----4---------9-------------l
-----------------4-------4----------2--------------7-----------------l
 A               G#m                F#             B

III
---------------0-----------------------------------------------------l
-------------0---7-----------7-7h9---5------4----------------2-4-4/5-l
-----------1----------8-------------------6--6---6-------4-----------l
-------2-4----------9-----9-------------6------6-------4-------------l
-----2-----------6------6------------4-------------2-------2---------l
-0-------------------------------------------------------------------l
 E(9)            B7                 C#m            B                  

-----------------------------------------------------------------------------l
-2-----------------------------------4---------------------------------------l
-----2-2h4-2-----2h4-------------4-6-------4---------------------------------lrepeat I,II, and III
---2-----------2--------------6------------------4--------------7-7h9-7------l
-0-----------0-------0------6-----------------4-----4---------9---------11p9-l
------------------------4-------4----------2--------------7------------------l
 A                      G#m                F#             B


IV
--------------------------------------------------------------------------------l
---------------------------------2--------------------------1---------1-1p0-0-1-l
-1-----1-----------1-1-1---------------------1----------------------------------l
-2-----2-----------2-----2-4---------------4---4-2----4-------------------------l
----2-----------2-------------2---------2----------4-----2---------2------------l
-0-----------0-------------0---------0----------------0---------0---------------l
 E                           

--------------------------------------------------------------------------------l
-0-------------------------------------------------------------2-----2-------2--l
-------1----------1----1------1--------1----1-1-1h2p1---------------------------l
-------2----------2---------2---2---2-----------------2--4---4-----4---4---4----l
----2----------2----------2-------2-------2----------------2-----2-------2---2--l
-0----------0----------0---------------0-----------------0----------------------l
 E          

---------0---4----5---2-----2----2-2-4-5s7-7-------------l
---2-2-4-----2--------2-----2----------------------------l
-------------2--------2-----2----------------------------l
-------------0-------------------------------------------l
----------------0--------0----0---------------4--6--7----l
-0-----------------------------------------7-------------l
                                           B

V
(same chords as II and III)

----------------12--14----------14-14s16---12-------------------------9-11-11s12-l
-----------9-12------------------------------------------------------------------l
------9-11-----------------------------------------------------------------------l
----9-----------------------9----------------------11-----------9----------------l
-------------------------9----------------------11----11-----9-------------------l
-0------------------11---------------------9--------------7--------7-------------l


-9----------------------------7-9-9s11-----7-------------------------------------l
---------------------------------------------------------------------------------l
----------------------------------------------------------------8----------------l
-------7-----------------6-----------------------4-----------------9-------------l
----7-----7------------6----------------------4-----4--------9-------------------l
-5------------------4------4---------------2--------------7----------------------l

----------------12--14----------12p11-----12-------------------------9-11-11s12--l
-----------9-12------------------------------------------------------------------l
------9-11-----------------------------------------------------------------------l
----9-----------------------9----------------------11-----------9----------------l
-------------------------9----------------------11----11-----9-------------------l
-0------------------11---------------------9--------------7--------7-------------l


-9----------------------------7-9-9s11-----7-------------------------------------l
---------------------------------------------------------------------------------l
---------------------------------------------------------------------------------l
-------7-----------------6-----------------------4--------------7-7h9-7----------l
----7-----7------------6----------------------4-----4--------9-----------11p9----l
-5------------------4------4---------------2--------------7----------------------l

---------------0-------------------------------------------4-2---------l
-------------0---7-----------7-7h9---5------4--------------------5s4---l
-----------1----------8-------------------6--6---6-------4-------------l
-------2-4----------9-----9-------------6------6-------4---------------l
-----2-----------6------6------------4-------------2-------2-----------l
-0---------------------------------------------------------------------l                

-----------------------------------------------------------------------------l
-2-----------------------------------4---------------------------------------l
-----2-2h4-2-----2h4-------------4-6-------4---------------------------------l
---2-----------2--------------6------------------4--------------7-7h9-7------l
-0-----------0-------0------6-----------------4-----4---------9---------11p9-l
------------------------4-------4----------2--------------7------------------l



V
--------------------------------------------------------------------l
--------------------------------------------------------------------l
-------1------------1-1-1-----1-------------------------------------l
-2-----2------------2------2---------4-----------4--4p2--2--1----2--l
----2------------2----------------2----------2-------------------2--l
-0-----------0----------------0----------0-----------------------0--l
Tap to rate this tab
 
# A B C D E F G H I J K L M N O P Q R S T U V W X Y Z