Song name
# A B C D E F G H I J K L M N O P Q R S T U V W X Y Z

Jim Henson - Rainbow Connection tab

I put the capo on 3 for this.

Verses:
    C            Am            F             G
e-------------------------------------------------------------|
B------1--1-----------1--1---------1--1----------0---0--------|
G------0--0-----------2--2---------2--2----------0---0--------|
D------------------------------3------------------------------|
A---3-------------0-------------------------------------------|
E---------------------------------------------3---------------|

So we've been told.../What's so amazing.../I've heard it too many...
   Am                                 G
e--------------------------------------------------------------------|
B------1--1-----1--1----1--1----1--1----0--0----0--0----0--0----0--0-|
G------2--2-----2--2----2--2----2--2----0--0----0--0----0--0----0--0-|
D--------------------------------------------------------------------|
A---0--------0--------0-------0--------------------------------------|
E-------------------------------------3-------3-------3-------3------|

Chorus:
    Dm        G        C       Am       Dm       G        C
e-------------------------------------------------------------------------|
B------3--3------0--0----1--1-----1--1-----3--3-----0--0-----1--1----1--1-|
G------2--2------0--0----0--0-----2--2-----2--2-----0--0-----0--0----0--0-|
D---0------------------------------------0--------------------------------|
A----------------------3--------0-------------------------3--------3------|
E-------------0-----------------------------------0-----------------------|
Tap to rate this tab
 
# A B C D E F G H I J K L M N O P Q R S T U V W X Y Z