Song name
# A B C D E F G H I J K L M N O P Q R S T U V W X Y Z

Jim Stark - Morning Song tab

-------------------------------------------------------------------------------
			     The Morning Song - Folly
-------------------------------------------------------------------------------
Tabbed by: Devon
Email: devonc_91@hotmail.com


(0:01)
e|---------------------------------|
b|---------------------------------| --|
g|---------0------0------0-----0---|   |--x4
d|------6-------6------6-----6-----|   |
a|---4--------4------4-----4-------| --|
E|---------------------------------|

(0:17)
e|---------------------------------|
b|---------------------------------|
g|---------0------0------0-----0---|
d|------4-------4------4-----4-----|
a|---2--------2------2-----2-------|
E|---------------------------------|

(0:21)
e|---------------------------------|
b|---------------------------------| --|
g|---------0------0------0-----0---|   |--x2
d|------6-------6------6-----6-----|   |
a|---4--------4------4-----4-------| --|
E|---------------------------------|

(0:29)
e|---------------------------------|
b|---------------------------------| --|
g|---------0------0------0-----0---|   |--x2
d|------4-------4------4-----4-----|   |
a|---2--------2------2-----2-------| --|
E|---------------------------------|

(0:36)
e|--------------------------------------------------|
b|--------------------------------------------------| --|
g|---------0--------0---------------0-----------0---|   |--x2
d|------8--------8------6-5------4-----------4------|   |
a|---6--------6---------------2--------2--0---------| --|
E|--------------------------------------------------|

(1:05)
e|---0~-----------------|
b|---0~-----------------|
g|---0~-----------------|
d|---4~-----------------|
a|---2~-----------------|
E|---0~-----------------|
Tap to rate this tab
# A B C D E F G H I J K L M N O P Q R S T U V W X Y Z