Song name
# A B C D E F G H I J K L M N O P Q R S T U V W X Y Z

Jim Sturgess - The Other Me tab

The opening riff:

e|-----0--------------------------------------------------------------------|
B|--------3-----------------------------------------------------------------|
G|-----------0------0------0------0-----------------------------------------|
D|---------------4------4------4--------------------------------------------|
A|--------------------------------------------------------------------------|
E|--0-----------------------------------------------------------------------|

x 2


                                                 E
e|-----0--------------------------------------------------------------------|
B|--------3-----------------------------------------------------------------|
G|-----------0------0------0------0----0---0--------------------------------|
D|---------------4------4------4----4----4---4---2--------------------------|
A|-----------------------------------------------2--------------------------|
E|--0--------------------------------------------0--------------------------|


Repeat this for the opening lyrics.

I have seen another sky
I have climbed another tree
I have wished another star,
above another star lit sea

Bm
  Another me lives another life,

F#
  I've always dreamed

Bm
  Another me exists somewhere

F#                           Em
  Why can't I live that life there?

              Bm               [Repeat intro riff]
Please let me be ... the other me


[Intro riff with lyrics]

And I have seen another sunrise,
and another lightning storm
I'm not just the me you see
You see another me was born


Bm
  Another me lives another life,

F#
  I've always dreamed

Bm
  Another me exists somewhere

F#                           Em
  Why can't I live that life there?

              Bm
Please let me be ... the other me



Bm
   Somewhere I'm happy

                  Em
I'm smiled at understood


Bm
   In another Place I lift my face,

                 Em
not hide it in a hood


Bm                   Em
Ahhhhhhhhhhhhhhhhhhhhhhhh


Bm                   Em
Ahhhhhhhhhhhhhhhhhhhhhhhh


[Repeat Intro Riff]

I have seen another sky
I have climbed another tree
I have wished another star,
above another star lit sea

Bm
   Somewhere I'm happy

                  Em
I'm smiled at understood


Bm
   In another Place I lift my face,

                 Em
not hide it in a hood


[Repeat Intro Riff For End Lyrics]


I have loved another love,
in another place like this
I've been held and felt so safe
Oh yes, I've kissed another kiss



Thanks! I was disappointed there hasn't been any tabs/chords for this great song. I'm 
not sure about the F# but it's my first tab and it works for me!
Tap to rate this tab
# A B C D E F G H I J K L M N O P Q R S T U V W X Y Z