Song name
# A B C D E F G H I J K L M N O P Q R S T U V W X Y Z

Jimbob Square Pants - Pure Imagination tab

e ---------------------10-11-10-11-10-11-10----|
B -----11------11---------------------------11-|
G ---8-------8-------8-------------------------|
D 10------10------10---------------------------|
A ---------------------------------------------|
E ---------------------------------------------|

e ----------------------------------------|
B -----8-9-11-8---------------------------|
G ---8----------10-8-7-8-7-8-7------------|
D 10---------------------------8----------|
A ----------------------------------------|
E ----------------------------------------|

e ---------------------10-11-10-11-10-11-10----|
B -----11------11---------------------------11-|
G ---8-------8-------8-------------------------|
D 10------10------10---------------------------|
A ---------------------------------------------|
E ---------------------------------------------|

e ---------------------10-----------------|
B -----8-9-11-8---------------------------|
G ---8----------10-8-7--------------------|
D 10--------------------------------------|
A ----------------------------------------|
E ----------------------------------------|

e 7-9-7-9-7---6---------------------------|
B --------------7---------------------7---|
G ----------------8---8-9-8-9-8-----8-----|
D --------------------------------9-------|
A ----------------------------------------|
E ----------------------------------------|

e 6-8-6-8-6-----6---6-8-6-8-6---------------|
B ------------8-----------------------------|
G ----------8---------------------5-6-7-8---|
D ----------------------------8-------------|
A ------------------------------------------|
E ------------------------------------------|

e ---------------------10-11-10-11-10-11-10----|
B -----11------11---------------------------11-|
G ---8-------8-------8-------------------------|
D 10------10------10---------------------------|
A ---------------------------------------------|
E ---------------------------------------------|

e ---------------------10-----------------|
B -----8-9-11-8---------------------------|
G ---8----------10-8-7----6-7-8-----------|
D 10--------------------------------------|
A ----------------------------------------|
E ----------------------------------------|

e 7-9-7-9-7---6---------------------------|
B --------------7---------------------7---|
G ----------------8---8-9-8-9-8-----8-----|
D --------------------------------9-------|
A ----------------------------------------|
E ----------------------------------------|

e 6-8-6-8-6-----6---6-8-6-8-6---------------|
B ------------8-----------------------------|
G ----------8---------------------5-6-7-8---|
D ----------------------------8-------------|
A ------------------------------------------|
E ------------------------------------------|

e ---------------------10-11-10-11-10-11-10----|
B -----11------11---------------------------11-|
G ---8-------8-------8-------------------------|
D 10------10------10---------------------------|
A ---------------------------------------------|
E ---------------------------------------------|

e ---------------------10-----------------|
B -----8-9-11-8---------------------------|
G ---8----------10-8-7----6-7-8-----------|
D 10--------------------------------------|
A ----------------------------------------|
E ----------------------------------------|

jimbobsquarepants.moonfruit.com
Tap to rate this tab
# A B C D E F G H I J K L M N O P Q R S T U V W X Y Z