Song name
# A B C D E F G H I J K L M N O P Q R S T U V W X Y Z

Jimi Hendrix - Hey Joe drum

Song:Hey Joe
 Band: Jimi Hendrix Experience

 Time: 3:30
 Timing: 4/4  with some swing feel randomly
 Tabber: fuperman

This is no means 100% but pretty much close.
Anything that needs to be fixed tell me.
I have never seen another Hey Joe Drum Tab so 
im guessing this is the only one.

%  this signs stands for 2 32nd notes and some triplets
 listen to the song closely with this tab and you will 
 get what im talking about

                                            
  [------x2------]
R|----------------|----------------|X---------------|----------------|
H|----------------|----------------|--0-x-0-0-0-x-0-|0-0-x-0-0-0-x-0-|
S|----------------|0-o-o-----------|----o-------o---|----o-------o---|
t|----------------|------0-o-o-0---|----------------|----------------|
B|----------------|----------------|o-----o-o-----o-|o-----o-o-----o-|
                  
H|0-0-x-0-0-0-0-x0|0-0-x-0-0-0-0-x0|0-0-x-0-0-0-x-0-|0-0-x-0-0-0-x00-|
S|----o--o---o--o-|----o--o---o--0-|----o-------o---|----o-------o---|
B|o-------o-o--o--|o-------o---o---|o-----o-o-----o-|o-----o-o-----o-|

R|X---------------|----------------|X---------------|----------------|
H|--0-x-0-0-0-0-x0|0-0-x-0---------|--0-x-0-0-0-x-0-|0-0-x-0-0-0-x-0-|
S|----o--o---o--o-|----o--o-%0-----|----o-------o---|----o-------o---|
t|----------------|--------0---%---|----------------|----------------|
F|----------------|--------------%-|----------------|----------------|
B|o-------o-o--o--|o-----0---------|o-----o-o-----o-|o-----o-o-o---o-|

R|X---------------|----------------|X---------------|----------------|
H|--0-x-0-0-0-0-x0|0-0-x-0---------|--0-x-0-0-0-x-0-|0-0-x-0-0-0-x-0-|
S|----o--o---o--o-|----o--d0o d---d|----o-------o---|----o-------o---|
t|----------------|------------o---|----------------|----------------|
F|----------------|-------------o--|----------------|----------------|
B|o-------o-o--o--|o-----o---------|o-----o-o-----o-|o-----o-o-o---o-|

R|X---------------|--------------------|
H|--0-x-0-0-0-0-x0|0-0---0-0-0---------|
S|----o--o---o--o-|-o-oo--o--o--ooo0ooo|
t|----------------|------------0-------|
F|----------------|--------------------|
B|o-------o-o--o--|o----o---o-o--------|
                               [.32nds.]                           

R|X-x-x-x-x-x-x-x-|x-x-x-x-x-x-x-x-|X-x-x-x-x-x-x-xx|x-x-x-x-x---------|
S|----o-------o---|----o-----o-----|----o--o---o--o-|----o--o-o-o0o----|
t|----------------|----------------|----------------|--------------oo--|
F|----------------|----------------|----------------|----------------oo|
B|o-----o-o-o---o-|o-----o-o---o-o-|o-------o-o--o--|o-------o---------|
                                                                 [trips]
R|X-x-x-x-x-x-x-x-|x-x-X-x-x-x-x-x-|X-x-X-x-x-x-x-xx|x-x---x-------------|
S|----o-------o---|----o-----o-----|----o--o---o--o-|-o-o0o-0oo----------|
t|----------------|----------------|----------------|-----------00-------|
T|----------------|----------------|----------------|--------------00----|
F|----------------|----------------|----------------|-----------------00-|
B|o-----o-o-o---o-|o-----o-o---o-o-|o-------o-o--o--|o---------o--o--o--o|
                                                             [ triplets. ]
C|----------------|----------------|--------------X-|
R|X-x-x-x-x-x-x-x-|x-x-x-x-x-x-x-x-|X-x-X-x-x-x-x---|
S|----o-------o--d|----o-----o-----|----o--o---o--o-|
t|----------------|----------------|----------------|
F|----------------|----------------|----------------|
B|o-----o-o-o---o-|o-----o-o---o-o-|o-------o-o--o--|


S|-ooo-ooo-ooo0ooo0ooo-ooo-ooo0ooo|
t|0-------0-----------0-----------|
F|----0-------------------0-------|
 [           32nd notes.          ]
C|X---------------|----------------|X
R|--x-x-x-x-x-x-x-|x-x-x-x---------|--x-x-x-x-x-x-x-|
S|----o-------o--d|----o---F-F-0%0-|----o-------o---|
t|----------------|----------------|----------------|
F|----------------|----------------|----------------|
B|o-----o-o-o---o-|o-----o-o-o-----|o-----o-o-o---o-|

S|--ooo0--ooo0--ooo0--ooo---oo----|
t|0----------------------0--------|
F|----------------------------0---|
 [           32nd notes.          ]
C|X---------------|----------------|----------------|
R|--x-x-x-x-x-x-x-|X-x-x-x-x-----X-|X-x-X-x-x-x-x-X-|
S|----o-------o--d|----o-----F-----|----o-------o--o|
t|----------------|------------0---|----------------|
F|----------------|----------------|----------------|
B|o-----o-o-o---o-|o-----o-o-----o-|o-----o-o-o---o-|

S|--0--o0 0--o0------o--------------|
t|0-------------0------0-o-o--------|
F|---------------------------0-o-o--|
B|----------o-----o-----------------|
 [ 32nd notes. ]    [   triplets.   ]
R|X-x-x-x-x-x-x-x-|X-x-x-x---------|x-x-x-x-x-x-x-xx|x-xxx-x-xxx----------|
S|----o-------o--d|----o----0-o0%--|----o--o---o--o-|-o--o--o--o-o0ooo----|
t|----------------|--------0-----0%|----------------|-----------------0ooo|
F|----------------|----------------|----------------|---------------------|
B|o-----o-o-o---o-|o-----o---------|o-------o-o--o--|o--------------------|
                                                                  [ 32nds.]
C|X--------------------|--------------------|----------------|
R|--x-x-x--------------|x-x-x-x-------------|X-x-X-x-x-x-x-x-|
S|----o----ooo0--------|----o--o00----------|----o--o---o--o-|
t|--------0------o0----|-----------00-------|----------------|
T|---------------------|--------------00----|----------------|
F|------------------o0-|-----------------00-|----------------|
B|o-----o--------------|o---------o--o--o--o|o-------o-o--o--|
          [   32nds.   ]        [ triplets. ]
S|--oo0---oo0-0-------oo0-0-------|
t|0-----0-------oo0-0-------oo0ooo]
 [           32nd notes.          ]
C|----------------|----------------|X---------------|----------------|
R|X-x-x-x-x-x-x-x-|x-x-x-x-x-x-x-x-|--x-x-x-x-x-x-xx|x-xxx-x-xxx-----|
S|----o-------o---|----o-----o-o---|----o--o---o--o-|-o--o--o--o-F-F-|
t|----------------|----------------|----------------|----------------|
F|----------------|----------------|----------------|----------------|
B|o-----o-o-o---o-|o-----o-o-----o-|o-------o-o--o--|o--o--o--o------|

C|----------------|----------------|----------------|
R|X-x-x-x-x-x-x-x-|x-x-x-x-x-x-x-x-|x-x-x-x-x-x-x-x-|
S|----o-------o--d|----o-----o-----|----o--o---o--o-|
t|----------------|----------------|----------------|
F|----------------|----------------|----------------|
B|o-----o-o-o---o-|o-----o-o---o-o-|o-------o-o--o--|
  
S|----0---------------------------|
t|oooo----0-----------oo0-0-oo0---|
T|------------0-------------------|
F|---------------o0-0-------------|
 [           32nd notes.          ]

C|--------------------|----------------|----------------|
R|X-x-x-x-x-x---------|x-x-x-x---------|X-x-X-x-x-x-x-x-|
S|----o-----o--ooo0ooo|----o--o-0-o0%--|----o--o----o---|
t|------------0-------|--------o-----0%|----------------|
F|--------------------|----------------|----------------|
B|o-----o-o-----------|o---------------|o-------o-o---o-|
              [ 32nds.]
S|--0-oo0---oo0-0-oo--------------|
t|0-------0---------0-------------|
T|--------------------0-----------|
F|-----------------------o--o--o--|
  [   32nd notes.     ] [ trips.]
C|--------------------|----------------|X---------------|----------------|
R|X---X-x-x-x---------|x-x-x-x---------|--x-x-x-x-x-x-xx|x-x-x-x---------|
S|----o-----o---------|----o-----------|----o--o---o--o-|--o-0--d00-d---d|
t|------------0ooo----|--------0-%-----|----------------|------------00--|
T|--------------------|------------%---|----------------|----------------|
F|----------------0ooo|--------------%-|----------------|----------------|
B|0-----o-o-----------|o-----o---------|o-------o-o--o--|o---------------|
             [ 32nds. ]
C|----------------|----------------|X---------------|
R|X-x-x-x-x-x-x-x-|x-x-x-x-x-------|--x-x-x-x-x-x-xx|
S|----o-------o---|----o-----F-F-F-|----o--o---o--o-|
t|----------------|----------------|----------------|
F|----------------|----------------|----------------|
B|o-----o-o-o---o-|o-----o-o-------|o-------o-o--o--|


R|x-x-x-x-----------------|
S|--o-0----ooo0ooo0ooo-ooo|
t|--------0-----------0---|
B|o-----o-----------------|
          [  32nd notes.  ]
C|----------------|---------------------|X---------------|--------------------|
R|X-x-x-x---------|x-x-x-x--------------|--x-x-x-x-x-x-xx|x-xxxxx-x-x---------|
S|----o----d%-----|----o---o00----------|----o--o---o--o-|-o--o--o--oo-o00----|
t|--------0---%---|------------00-------|----------------|-----------------00-|
T|----------------|---------------00----|----------------|--------------------|
F|--------------%-|------------------00-|----------------|--------------------|
B|o-----o---------|o-----o----o--o--o--o|o-------o-o--o--|o--o--o--o------o--o|
                                                                        [trips]
C|X-------------------|X--------------------|X---------------|
R|--x-x-x-------------|--x-x-x--------------|----------------|
S|----o----ooo0-------|----o---o00----------|----------------|   THE
t|--------0------0----|------------00-------|----------------|   END
T|------------------0-|---------------00----|----------------|
F|--------------------|------------------00-|----------------|
B|o-----o-------------|o-----o----o--o--o--o|o---------------|
          [32nd notes.]
Tap to rate this tab
# A B C D E F G H I J K L M N O P Q R S T U V W X Y Z