Song name
# A B C D E F G H I J K L M N O P Q R S T U V W X Y Z

Jimi Hendrix - Star-spangled Banner tab

"The Star-Spangled Banner"
Jimi Hendrix

When you play this use a lot of feedback.
Use any kind of Wah-wah or distortion pedal you have.

-----------0--------------------4-2-0----------------------
-0-------0-----7-7-5------------------4---2-4-5-5----------
---1---1--------------1-3-4---4---------------------4-1----
-----2--------------------------------------------------2--
-----------------------------------------------------------
-----------------------------------------------------------

-----------0--------------------4-2-0----------------------
-0-------0-----7-7-5------------------4---2-4-5-5----------
---1---1--------------1-3-4---4---------------------4-1----
-----2--------------------------------------------------2--
-----------------------------------------------------------
-----------------------------------------------------------

-2-2-4-5-7-7-----5-4-2-4-5-5---5-4--2-0--------------------
----------------------------------------4---2-4-5----------
---------------------------------------------------1-3-4---
-----------------------------------------------------------
-----------------------------------------------------------
-----------------------------------------------------------

-----------------2-4-5-5----------------2-4-5-7--0-2-4-5-2-
---5-5-4--2-2-2-------------5-4-------5--------------------
-4--------------------------------4-4----------------------
-----------------------------------------------------------
-----------------------------------------------------------
-----------------------------------------------------------
Tap to rate this tab
# A B C D E F G H I J K L M N O P Q R S T U V W X Y Z