Guitaretab - guitar tabs
Song name
# A B C D E F G H I J K L M N O P Q R S T U V W X Y Z

Jimi Hendrix - Highway Chile tab

------------------------------------------------------------

   JIMI HENDRIX - HIGHWAY CHILE. ARE YOU EXPERIENCED album.
                  Released in the UK on 12th May 1967.

------------------------------------------------------------

   Tabbed by PJVillanueva







Yeah, his guitar slung across his back
His dusty boots is his cadillac
Uh flaminí hair just a blowiní in the wind
Ainít seen a bed in so long itís a sin
He left home when he was seventeen
The rest of the world he had longed to see
And everybody knows the boss
A rolling stone who gathers no moss

But youíd probably call him a tramp
But it goes a little deeper than that
Heís a Highway chile, yeah

Now some people say he had a girl back home
Who messed around and did him pretty wrong
They tell me it kinda hurt him bad
Kinda made him feel pretty sad
I couldnít say what went through his mind
Anyway, he left the world behind
But everybody knows the same old story,
In love and war you canít lose in glory

Now youíd probably uh call him a tramp
But I know it goes a little deeper than that
Heís a Highway chile

Walk on brother, yeah
One more brother

His old guitar slung across his back
His dusty boots is his cadillac
Flaminí hair just a blowiní in the wind
Ainít seen a bed in so long itís a sin

Now you may call him a tramp
But I know it goes a little deeper than that
Heís a Highway chile

Walk on brother
Donít let no one stop you
Highway chile
Yeah yeah yeah
Highway chile
Rollin' stone
Go on down the highway
Rollin' on
Highway chile
Yeah yeah yeah
Highway chile
Ow!





    Standard tuning




    12/8 time



e|-------- -------- -------- --------|-------- -------- -------- --------|
B|-8----------------7----7--------7--|-----5-----------------------------|
G|10B12-~-----------9B11-9B11-----7B11-----5B9-~-------------------------|
D|-----------------------------------|-----------------------------------|
A|-----------------------------------|-----------------------------------|
E|-----------------------------------|-----------------------------------|





e|-------- -------- -------- --------|-------- -------- -------- --------|
B|-8----------------7----7--------7--|-----5-----------------------------|
G|10B12-~-----------9B11-9B11-----7B11-----5B9-~-------------------------|
D|-----------------------------------|-----------------------------------|
A|-----------------------------------|-----------------------------------|
E|-----------------------------------|-----------------------------------|





e|-------- -------- -------- --------|-------- -------- -------- --------|
B|12----------------10---10------10--|------8----------------------------|
G|14B16-~-----------12B1412B14---12B14-----10B12-~-----------------------|
D|-----------------------------------|-----------------------------------|
A|-----------------------------------|-----------------------------------|
E|-----------------------------------|-----------------------------------|



                                                          

e|-------- -------- -------- --------|-------- -------- -------- --------|
B|12----------------10---10------10--|------8--------------------3-------|
G|14B16-~-----------12B1412B14---12B14-----10B12-~---------------2-------|
D|-----------------------------------|---------------------------0-------|
A|-----------------------------------|-----------------------------------|
E|-----------------------------------|-----------------------------------|
                                                                 Yeah!


  00:14
  E
e|-------- -------- -------- --------|-------- -------- -------- --------|
B|-----------------------------------|-----------------------------------|
G|---------1--------1----1--------1--|---------1--------1----1--------1--|
D|---------2--------2----2--------2--|---------2--------2----2--------2--|
A|---------2--------2----2--------2--|---------2--------2----2--------2--|
E|0--------0--------0----0--------0--|0--------0--------0----0--------0--|
       his guitar            slung across  his      back




e|-------- -------- -------- --------|-------- -------- -------- --------|
B|-----------------------------------|-----------------------------------|
G|---------1--------1----1--------1--|-----1---1--------1----1--------1--|
D|---------2--------2----2--------2--|-----2---2--------2----2--------2--|
A|---------2--------2----2--------2--|-----2---2--------2----2--------2--|
E|0--------0--------0----0--------0--|0----0---0--------0----0--------0--|
       His dusty    boots is      his          cadillac




e|-------- -------- -------- --------|-------- -------- -------- --------|
B|-----------------------------------|-----------------------------------|
G|1--------1--------1----1--------1--|1----1---1--------1----1--------1--|
D|0-H-2----2--------2----2--------2--|2----2---2--------2----2--------2--|
A|2--------2--------2----2--------2--|2----2---2--------2----2--------2--|
E|0--------0--------0----0--------0--|0----0---0--------0----0--------0--|
        Uh flaminí hair just a blowiní in the wind


                                                        x  x  X  x  x  X 

e|-------- -------- -------- --------|-------- -------- -------- --------|
B|-----------------------------------|-----------------------------------|
G|-HPHPH---1--------1----1--------1--|1----1---1--------1----1---1----0--|
D|020202---2--------2----2--------2--|2----2---2--------2----2---2----0--|
A|---------2--------2----2--------2--|2----2---2--------2----2---2----0--|
E|---------0--------0----0--------0--|0----0---0--------0----0---0-------|
     Ainít seen a   bed  in  so   long         itís a   sin


  00:28
  C7#9
e|-------- -------- -------- --------|-------- -------- -------- --------|
B|4--------4--------4----4---4----4--|4----4---4--------4----4---4----4--|
G|3--------3--------3----3---3----3--|3----3---3--------3----3---3----3--|
D|2--------2--------2----2---2----2--|2----2---2--------2----2---2----2--|
A|3--------3--------3----3---3----3--|3----3---3--------3----3---3----3--|
E|-----------------------------------|-----------------------------------|
        He left home         when he       was seventeen




e|-------- -------- -------- --------|-------- -------- -------- --------|
B|4--------4--------4----4---4----4--|4----4---4----4---4----4---4----4--|
G|3--------3--------3----3---3----3--|3----3---3----3---3----3---3----3--|
D|2--------2--------2----2---2----2--|2----2---2----2---2----2---2----2--|
A|3--------3--------3----3---3----3--|3----3---3----3---3----3---3----3--|
E|-----------------------------------|-----------------------------------|
       The rest of       the world he      had longed to see



  E
e|-------- -------- -------- --------|-------- -------- -------- --------|
B|-----------------------------------|-----------------------------------|
G|1--------1--------1----1--------1--|1----1---1--------1----1---1----1--|
D|2--------2--------2----2--------2--|2----2---2--------2----2---2----2--|
A|2--------2--------2----2--------2--|2----2---2--------2----2---2----2--|
E|0--------0--------0----0--------0--|0----0---0--------0----0---0----0--|
       And everybody              knows        the  boss




e|-------- -------- -------- --------|-------- -------- -------- --------|
B|-----------------------------------|-----------------------------------|
G|-HPHPH---1--------1----1--------1--|1----1---1--------1----1---1-------|
D|020202---2--------2----2--------2--|2----2---2--------2----2---2-------|
A|---------2--------2----2--------2--|2----2---2--------2----2---2-------|
E|---------0--------0----0--------0--|0----0---0--------0----0---0-------|
       A   rolling  stone    who  gathers      no       moss


  00:42
  G  Gadd9 G ...
e|3---5--- 3---5--- 3---5--- 3---5---|3---5--- 3---5--- 3---5--- 3---5--3/
B|3---3----3---3----3---3----3---3---|3---3----3---3----3---3----3---3--3/
G|4---4----4---4----4---4----4---4---|4---4----4---4----4---4----4---4--4/
D|5---5----5---5----5---5----5---5---|5---5----5---5----5---5----5---5--5/
A|-----------------------------------|-----------------------------------|
E|-----------------------------------|-----------------------------------|
      But  youíd  probably            call him a   tramp



  A   A6   A ...
e|5---5--- 5---5--- 5---5--- 5---5---|5---5--- 5---5--- 5---5--- 5-------|
B|5---7----5---7----5---7----5---7---|5---7----5---7----5---7----5-------|
G|6---6----6---6----6---6----6---6---|6---6----6---6----6---6----6-------|
D|7---7----7---7----7---7----7---7---|7---7----7---7----7---7----7-------|
A|-----------------------------------|-----------------------------------|
E|-----------------------------------|-----------------------------------|
     But   it goes      a  little     deeper   than that    He's a


  00:49

e|-------- -------- -------- --------|-------- -------- -------- --------|
B|-8----------------7----7--------7--|-----5-----------------------------|
G|10B12-~-----------9B11-9B11-----7B11-----5B9-~-------------------------|
D|-----------------------------------|-----------------------------------|
A|-----------------------------------|-----------------------------------|
E|-----------------------------------|-----------------------------------|
                                                        Highway 


                                                          

e|-------- -------- -------- --------|-------- -------- -------- --------|
B|-8----------------7----7--------7--|-----5-----------------------------|
G|10B12-~-----------9B11-9B11-----7B11-----5B9-~-------------------------|
D|-----------------------------------|-----------------------------------|
A|-----------------------------------|-----------------------------------|
E|-----------------------------------|-----------------------------------|  
  chile,                                                Yeah


  X
  E
e|-------- -------- -------- --------|-------- -------- -------- --------|
B|-----------------------------------|-----------------------------------|
G|1--------1--------1----1---1-------|-HPHPH---1--------1----1---1----1--|
D|2--------2--------2----2---2-------|020202---2--------2----2---2----2--|
A|2--------2--------2----2---2-------|---------2--------2----2---2----2--|
E|0--------0--------0----0---0-------|---------0--------0----0---0----0--|
       Now some       say he  had a girl   back     home
              people



e|-------- -------- -------- --------|-------- -------- -------- --------|
B|-----------------------------------|-----------------------------------|
G|---------1--------1----1---1----1--|1----1---1--------1----1---1----1--|
D|5B6-~----2--------2----2---2----2--|2----2---2--------2----2---2----2--|   
A|---------2--------2----2---2----2--|2----2---2--------2----2---2----2--|
E|---------0--------0----0---0----0--|0----0---0--------0----0---0----0--|
       Who messed around and      did      him pretty   wrong




e|-------- -------- -------- --------|-------- -------- -------- --------|
B|-----------------------------------|-----------------------------------|
G|-HPHPH---1--------1----1--------1--|1----1---1--------1----1---1-------|
D|020202---2--------2----2--------2--|2----2---2--------2----2---2-------|
A|---------2--------2----2--------2--|2----2---2--------2----2---2-------|
E|---------0--------0----0--------0--|0----0---0--------0----0---0-------|  
      They tell me       it  kinda             hurt him bad


                                          

e|-------- -------- -------- --------|-------- -------- -------- --------|
B|-----------------------------------|-----------------------------------|
G|-HPHPH---1--------1----1--------1--|1----1---1--------1----1---1----0--|
D|020202---2--------2----2--------2--|2----2---2--------2----2---2----0--|
A|---------2--------2----2--------2--|2----2---2--------2----2---2----0--|
E|---------0--------0----0--------0--|0----0---0--------0----0---0-------|   
           Kinda    made him      feel         pretty   sad


  01:10
  C7#9
e|-------- -------- -------- --------|-------- -------- -------- --------|
B|4--------4--------4----4---4----4--|4--------4--------4----4---4----4--|
G|3--------3--------3----3---3----3--|3--------3--------3----3---3----3--|
D|2--------2--------2----2---2----2--|2--------2--------2----2---2----2--|
A|3--------3--------3----3---3----3--|3--------3--------3----3---3----3--|
E|-----------------------------------|-----------------------------------|  
       I   couldnít say      what went     through  his mind   


                                                         

e|-------- -------- -------- --------|-------- -------- -------- --------|
B|4--------4--------4----4---4----4--|4----4---4--------4----4---4----4--|
G|3--------3--------3----3---3----3--|3----3---3--------3----3---3----3--|
D|2--------2--------2----2---2----2--|2----2---2--------2----2---2----2--|
A|3--------3--------3----3---3----3--|3----3---3--------3----3---3----3--|
E|-----------------------------------|-----------------------------------|  
           Anyway,       he  left the world    behind


  X
  E
e|-------- -------- -------- --------|-------- -------- -------- --------|
B|-----------------------------------|-----------------------------------|
G|1--------1--------1----1--------1--|1----1---1--------1----1---1----1--|
D|2--------2--------2----2--------2--|2----2---2--------2----2---2----2--|
A|2--------2--------2----2--------2--|2----2---2--------2----2---2----2--|
E|0--------0--------0----0--------0--|0----0---0--------0----0---0----0--|   
       But everybody        knows the same old      story,




e|-------- -------- -------- --------|-------- -------- -------- --------|
B|-----------------------------------|-----------------------------------|
G|1--------1--------1----1---1----1--|1----1---1--------1----1---1-------|
D|2--------2--------2----2---2----2--|2----2---2--------2----2---2-------|
A|2--------2--------2----2---2----2--|2----2---2--------2----2---2-------|
E|0--------0--------0----0---0----0--|0----0---0--------0----0---0-------|  
       In  love and war  you canít    lose     in   glory


  01:24
  G  Gadd9 G ...
e|3---5--- 3---5--- 3---5--- 3---5---|3---5--- 3---5--- 3---5--- 3---5--3/
B|3---3----3---3----3---3----3---3---|3---3----3---3----3---3----3---3--3/
G|4---4----4---4----4---4----4---4---|4---4----4---4----4---4----4---4--4/
D|5---5----5---5----5---5----5---5---|5---5----5---5----5---5----5---5--5/
A|-----------------------------------|-----------------------------------|
E|-----------------------------------|-----------------------------------|   
          Now youíd  probably uh      call him a   tramp,        but uh



  A   A6   A ...
e|5---5--- 5---5--- 5---5--- 5---5---|5---5--- 5---5--- 5---5--- 5-------|
B|5---7----5---7----5---7----5---7---|5---7----5---7----5---7----5-------|
G|6---6----6---6----6---6----6---6---|6---6----6---6----6---6----6-------|
D|7---7----7---7----7---7----7---7---|7---7----7---7----7---7----7-------|
A|-----------------------------------|-----------------------------------|
E|-----------------------------------|-----------------------------------|  
      I    know it  goes  a  little   deeper   than that    He's a


  01:31

e|-------- -------- -------- --------|-------- -------- -------- --------|
B|-8----------------7----7--------7--|-----5-----------------------------|
G|10B12-~-----------9B11-9B11-----7B11-----5B9-~-------------------------|
D|-----------------------------------|-----------------------------------|
A|-----------------------------------|-----------------------------------|
E|-----------------------------------|-----------------------------------|
                                                        Highway 


                                                        

e|-------- -------- -------- --------|-------- -------- -------- --------|
B|-8----------------7----7--------7--|-----5-----------------------------|
G|10B12-~-----------9B11-9B11-----7B11-----5B9-~-------------------------|
D|-----------------------------------|-----------------------------------|
A|-----------------------------------|-----------------------------------|
E|-----------------------------------|-----------------------------------|    
  chile,                                                Walk on    brother 


  X
[ Tab from: http://www.guitaretab.com/j/jimi-hendrix/25368.html ]
e|-------- -------- -------- --------|-------- -------- -------- --------|
B|12----------------10---10------10--|------8----------------------------|
G|14B16-~-----------12B1412B14---12B14-----10B12-~-----------------------|
D|-----------------------------------|-----------------------------------|
A|-----------------------------------|-----------------------------------|
E|-----------------------------------|-----------------------------------|
                                                        Yeah!


                                                        X  x  X  X  x  X

e|-------- -------- -------- --------|-------- -------- -------- --------|
B|12----------------10---10------10--|------8----------------------------|
G|14B16-~-----------12B1412B14---12B14-----10B12-~-----------------------|
D|-----------------------------------|-----------------------------------|
A|-----------------------------------|-----------------------------------|
E|-----------------------------------|-----------------------------------|



   01:45

e|------12 -------- -----12- --------|-------- -------- -------- --------|
B|----12---15B17-~----------17R15-12-|12---12----------------------------|
G14B16-------------------------------|14B1614B16-~-----------------------|
D|-----------------------------------|-----------------------------------|
A|-----------------------------------|-----------------------------------|
E|-----------------------------------|-----------------------------------|





e|------12 -------- -----12- -B-R----|-------- -------- -------- ------12|
B|----12---15B17-~----------151715-12|12---12------------------------12--|
G14B16-------------------------------|14B1614B16-~--------------14B16----|
D|-----------------------------------|-----------------------------------|
A|-----------------------------------|-----------------------------------|
E|-----------------------------------|-----------------------------------|





e|-------- -----12- ------12 --------|-----12- ------12 -------- 12---12-|
B|15B17-~---------------12---15B17-~-|-------------12---15B17-~----------|
G|------------------14B16------------|---------14B16---------------------|
D|-----------------------------------|-----------------------------------|
A|-----------------------------------|-----------------------------------|
E|-----------------------------------|-----------------------------------|





e|-------- -----12- -----12- --------|-------- -------- -------- ------12|
B|15B17-~-----------15P12----12------|12-------12--------------------12--|
G|---------------------------14B16---|14B16----14B16-~-----------14B16---|
D|-----------------------------------|-----------------------------------|
A|-----------------------------------|-----------------------------------|
E|-----------------------------------|-----------------------------------|



  01:58

e|------12 ------12 -------- 12---12-|------12 ------12 -------- 12---12-|
B|----12-------12---15B17----12---12-|----12-------12---15B17---------12-|
G|14B16----14B16---------------------|14B16----14B16---------------------|
D|-----------------------------------|-----------------------------------|
A|-----------------------------------|-----------------------------------|
E|-----------------------------------|-----------------------------------|





e|------12 -----15- 12------ 12-15P12|------12 ------12 12------ 12---12-|
B|----12---15P12------12-15B16-------|----12-------12---15B17------------|
G|14B16------------------------------|14B16----14B16---------------------|
D|-----------------------------------|-----------------------------------|
A|-----------------------------------|-----------------------------------|
E|-----------------------------------|-----------------------------------|





e|------12 ------12 -------- 12---12-|------12 12---12- 12---12- 12---12-|
B|----12-------12---15B17----12---12-|----12---15B17----15B17----15B17---|
G|14B16----14B16---------------------|14B16------------------------------|
D|-----------------------------------|-----------------------------------|
A|-----------------------------------|-----------------------------------|
E|-----------------------------------|-----------------------------------|





e|------12 ------12 ------12 ------12|0------- 0------- 0------- --------|
B|----12-------12-------12-------12--|12-------12-------12-------0-------|
G|14B16----14B16----14B16----14B16---|14B16----14B16----14B17----0-------|
D|-----------------------------------|-----------------------------------|
A|-----------------------------------|-----------------------------------|
E|-----------------------------------|-----------------------------------|        



  02:12
  C7#9
e|-------- -------- -------- --------|-------- -------- -------- --------|
B|---------4--------4----4--------4--|---------4--------4----4---4----4--|
G|---------3--------3----3--------3--|---------3--------3----3---3----3--|
D|---------2--------2----2--------2--|---------2--------2----2---2----2--|
A|3--------3--------3----3--------3--|3--------3--------3----3---3----3--|
E|-----------------------------------|-----------------------------------|  
       his old  guitar       slung across  his      back       




e|-------- -------- -------- --------|-------- -------- -------- --------|
B|---------4--------4----4---4----4--|4----4---4--------4----4---4-------|
G|---------3--------3----3---3----3--|3----3---3--------3----3---3-------|
D|---------2--------2----2---2----2--|2----2---2--------2----2---2-------|
A|3--------3--------3----3---3----3--|3----3---3--------3----3---3-------|
E|-----------------------------------|-----------------------------------|  
       His dusty    boots is      his          cadillac      



  E
e|-------- -------- -------- --------|-------- -------- -------- --------|
B|-----------------------------------|-----------------------------------|
G|---------1--------1----1--------1--|1----1---1--------1----1---1----1--|
D|---------2--------2----2--------2--|2----2---2--------2----2---2----2--|
A|---------2--------2----2--------2--|2----2---2--------2----2---2----2--|
E|0--------0--------0----0--------0--|0----0---0--------0----0---0----0--|   
        Uh flaminí hair just a blowiní in the wind    




e|-------- -------- -------- --------|-------- -------- -------- --------|
B|-----------------------------------|-----------------------------------|
G|-HPHPH---1--------1----1---1----1--|1----1---1--------1----1---1-------|
D|020202---2--------2----2---2----2--|2----2---2--------2----2---2-------|
A|---------2--------2----2---2----2--|2----2---2--------2----2---2-------|
E|---------0--------0----0---0----0--|0----0---0--------0----0---0-------|  
     Ainít seen a   bed  in  so   long         itís a   sin    


  
  G  Gadd9 G ...
e|3---5--- 3---5--- 3---5--- 3---5---|3---5--- 3---5--- 3---5--- 3---5--3/
B|3---3----3---3----3---3----3---3---|3---3----3---3----3---3----3---3--3/
G|4---4----4---4----4---4----4---4---|4---4----4---4----4---4----4---4--4/
D|5---5----5---5----5---5----5---5---|5---5----5---5----5---5----5---5--5/
A|-----------------------------------|-----------------------------------|
E|-----------------------------------|-----------------------------------|   
       Now you may  call him a                       tramp,         uh



  A   A6   A ...
e|5---5--- 5---5--- 5---5--- 5---5---|5---5--- 5---5--- 5---5--- 5-------|
B|5---7----5---7----5---7----5---7---|5---7----5---7----5---7----5-------|
G|6---6----6---6----6---6----6---6---|6---6----6---6----6---6----6-------|
D|7---7----7---7----7---7----7---7---|7---7----7---7----7---7----7-------|
A|-----------------------------------|-----------------------------------|
E|-----------------------------------|-----------------------------------|  
     but I     know     it  goes  a   little     than that  He's a
                                           deeper 

  02:32 

e|-------- -------- -------- --------|-------- -------- -------- --------|
B|-8----------------7----7--------7--|-----5-----------------------------|
G|10B12-~-----------9B11-9B11-----7B11-----5B9-~-------------------------|
D|-----------------------------------|-----------------------------------|
A|-----------------------------------|-----------------------------------|
E|-----------------------------------|-----------------------------------|
                                                        Highway 




e|-------- -------- -------- --------|-------- -------- -------- --------|
B|-8----------------7----7--------7--|-----5-----------------------------|
G|10B12-~-----------9B11-9B11-----7B11-----5B9-~-------------------------|
D|-----------------------------------|-----------------------------------|
A|-----------------------------------|-----------------------------------|
E|-----------------------------------|-----------------------------------|    
  chile,                                                  Walk on  brother            




e|-------- -------- -------- --------|-------- -------- -------- --------|
B|12----------------10---10------10--|------8----------------------------|
G|14B16-~-----------12B1412B14---12B14-----10B12-~-----------------------|
D|-----------------------------------|-----------------------------------|
A|-----------------------------------|-----------------------------------|
E|-----------------------------------|-----------------------------------|
                                           Donít let    no    one     stop 




e|-------- -------- -------- --------|-------- -------- -------- --------|
B|12----------------10---10------10--|------8----------------------------|
G|14B16-~-----------12B1412B14---12B14-----10B12-~-----------------------|
D|-----------------------------------|-----------------------------------|
A|-----------------------------------|-----------------------------------|
E|-----------------------------------|-----------------------------------|
       you                                               Highway



e|12------ -------- -------- --------|-------- -------- -------- --------|
B|15B17-~---R15P12--12---12------10--|----8------------------------------|
G|------------------14B1614B16---12B14---10B12-~-------------------------|
D|-----------------------------------|-----------------------------------|
A|-----------------------------------|-----------------------------------|
E|-----------------------------------|-----------------------------------|
  chile                                             Yeah     yeah  yeah




e|12------ -------- -------- --------|-------- -------- -------- --------|
B|15B17-~---R15P12--12---12------10--|----8------------------------------|
G|------------------14B1614B16---12B14---10B12-\-------------------------|
D|-----------------------------------|-----------------------------------|
A|-----------------------------------|-----------------------------------|
E|-----------------------------------|-----------------------------------|
                                                        Highway 




e|-------- -------- -------- --------|-------- -------- -------- --------|
B|12----------------10---10------10--|------8----------------------------|
G|14B16-~-----------12B1412B14---12B14-----10B12-\-----------------------|
D|-----------------------------------|-----------------------------------|
A|-----------------------------------|-----------------------------------|
E|-----------------------------------|-----------------------------------|
  chile                                                 Rollin'      stone




e|-------- -------- -------- --------|-------- -------- -------- --------|
B|12----------------10---10------10--|------8----------------------------|
G|14B16-~-----------12B1412B14---12B14-----10B12-\-----------------------|
D|-----------------------------------|-----------------------------------|
A|-----------------------------------|-----------------------------------|
E|-----------------------------------|-----------------------------------|
                                                        Go on    down the
                                                                   highway



e|12------ -------- -------- --------|-------- -------- -------- --------|
B|15B17-~---R15P12--12---12------10--|----8------------------------------|
G|------------------14B1614B16---12B14---10B12-\-------------------------|
D|-----------------------------------|-----------------------------------|
A|-----------------------------------|-----------------------------------|
E|-----------------------------------|-----------------------------------|
                                                        Rollin'       on




e|12------ -------- -------- --------|-------- -------- -------- --------|
B|15B17-~---R15P12--12---10------10--|----8------------------------------|
G|------------------14B1614B14---12B14---10B12-\-------------------------|
D|-----------------------------------|-----------------------------------|
A|-----------------------------------|-----------------------------------|
E|-----------------------------------|-----------------------------------|
                                                        Highway




e|-------- -------- -------- --------|-------- -------- -------- --------|
B|12----------------10---10------10--|------8----------------------------|
G|14B16-~-----------12B1412B14---12B14-----10B12-\-----------------------|
D|-----------------------------------|-----------------------------------|
A|-----------------------------------|-----------------------------------|
E|-----------------------------------|-----------------------------------|
  chile                                                 Yeah          yeah




e|-------- -------- -------- --------|-------- -------- -------- --------|
B|12----------------10---10------10--|------8----------------------------|
G|14B16-~-----------12B1412B14---12B14-----10B12-\-----------------------|
D|-----------------------------------|-----------------------------------|
A|-----------------------------------|-----------------------------------|
E|-----------------------------------|-----------------------------------|
                                                        Highway




e|12------ -------- -------- --------|-------- -------- -------- --------|
B|15B17-~---R15P12--12---12------10--|----8------------------------------|
G|------------------14B1614B16---12B14---10B12-\-------------------------|
D|-----------------------------------|-----------------------------------|
A|-----------------------------------|-----------------------------------|
E|-----------------------------------|-----------------------------------|
  chile                                               




e|12------ -------- -------- --------|-------- -------- -------- --------|
B|15B17-~---R15P12--12---12------10--|----8------------------------------|
G|------------------14B1614B16---12B14---10B12-\-------------------------|
D|-----------------------------------|-----------------------------------|
A|-----------------------------------|-----------------------------------|
E|-----------------------------------|-----------------------------------|
                                                        Ow!




e|12------ -------- -------- ----12--|----12-- -------- -------- --------|
B|15B17-~---R15P12--12---12------15B17----15B17-\------------------------|
G|------------------14B1614B16-------|-----------------------------------|
D|-----------------------------------|-----------------------------------|
A|-----------------------------------|-----------------------------------|
E|-----------------------------------|-----------------------------------|





e|12------ -------- -------- ----12--|----12-- -------- -------- --------|
B|15B17-~-----12----12---12------15B17----15B17-\------------------------|
G|------------14B16-14B1614B16-------|-----------------------------------|
D|-----------------------------------|-----------------------------------|
A|-----------------------------------|-----------------------------------|
E|-----------------------------------|-----------------------------------|
  
  ..................................Fade.................................



e|-------- -------- -------- --------|-------- -------- -------- --------|
B|12------------10-------10-----10---|------8----------------------------|
G|14B16-~-------12-B14---12B14--12B14|---- 10B12-\-----------------------|
D|-----------------------------------|-----------------------------------|
A|-----------------------------------|-----------------------------------|
E|-----------------------------------|-----------------------------------|

  .......................................................................











        B  Bend
        R  Release
        /  Slide up
        \  Slide down
        H  Hammer-on
        P  Pull-off
        ~  Vibrato
        +  Harmonic
        x  Mute note
        .  Play note like a dot in standard notation
        ^  Ties two notes together
        (.  Pause
     



Related for Highway Chile tab