Song name
# A B C D E F G H I J K L M N O P Q R S T U V W X Y Z

Jimi Hendrix - Fire tab

 FIRE


Gtr I (E A D G B E) - '"Fire" by Jimi Hendrix Experience'

  Q=156
 4/8
  Gtr I
  Q   E E    E E Q    Q   Q     E  E Q    Q   E E
|---------|---------|--------|----------|---------|
|---------|---------|--------|----------|---------|
|---------|---------|--------|----------|----13---|
|----18---|-17------|----15--|-12-12----|---------|
|---------|---------|--------|----------|----11---|
|----16---|-15------|----13--|-10-10----|---------|


   E E Q    Q   Q     E  E Q    E E  E E
|---------|--------|----------|------------|
|---------|--------|----------|------------|
|-12------|--------|----------|--------7---|
|---------|----15--|-12-12----|---7-10-0---|
|---------|--------|----------|---0--------|
|-15------|----13--|-10-10----|------8-----|


  E E Q    W      W          E E  E E   E E Q
|--------|------|----------|----------|--------|
|--------|------|----------|----------|--------|
|-7------|------|----------|--------7-|-7------|
|-0------|------|----------|---7-10-0-|-0------|
|--------|------|----------|---0------|--------|
|--------|------|----------|------8---|--------|


  W          W          E E  E E   E E Q
|----------|----------|----------|----------|
|----------|----------|----------|----------|
|----------|----------|--------7-|-7--------|
|----------|----------|---7-10-0-|-0--------|
|----------|----------|---0------|----------|
|----------|----------|------8---|----------|


  W      W          E E  E E   E E Q
|------|----------|----------|--------|
|------|----------|----------|--------|
|------|----------|--------7-|-7------|
|------|----------|---7-10-0-|-0------|
|------|----------|---0------|--------|
|------|----------|------8---|--------|


  W          W      E E  E E   E E Q    W
|----------|------|----------|--------|------|
|----------|------|----------|--------|------|
|----------|------|--------7-|-7------|------|
|----------|------|---7-10-0-|-0------|------|
|----------|------|---0------|--------|------|
|----------|------|------8---|--------|------|


  W      E E  E E   E E Q    W       H       +H       Q  S S E    E  S S E  E
|------|----------|--------|------|-10----|-(10)----|----------|-10-14-----15-|
|------|----------|--------|------|--8----|--(8)----|----------|----15-----15-|
|------|--------7-|-7------|------|--7----|--(7)----|-7--7-----|--------------|
|------|---7-10-0-|-0------|------|-------|---------|----------|--------------|
|------|---0------|--------|------|-------|---------|----------|--------------|
|------|------8---|--------|------|-------|---------|----------|--------------|


   +Q    +E   S  S    S  S  S  S  S  S  E    Q   S S E
|-(15)--(15)-------|----------------------|------------|
|-(15)--(15)----13-|-15-13----13-15-13----|------------|
|------------14----|-------14----------14-|------------|
|------------------|----------------------|-12--12-----|
|------------------|----------------------|------------|
|------------------|----------------------|------------|


   E  S S  E  E    +Q    +E   S  S    Q   E  E    Q   S S E
|-10-14------15-|-(15)--(15)-------|-----------|--------------|
|----15------15-|-(15)--(15)----13-|-15--17----|--------------|
|---------14----|------------14----|-----------|--------------|
|---------------|------------------|--------19-|--------------|
|---------------|------------------|-----------|-17--17-------|
|---------------|------------------|-----------|--------------|


   E  S S E  E    +Q    +E   S  S    S  S  S  S  S  S  E
|----14-----15-|-(15)--(15)-------|----------------------|
|-15-15-----15-|-(15)--(15)----13-|-15-13----13-15-13----|
|--------------|------------14----|-------14----------14-|
|--------------|------------------|----------------------|
|--------------|------------------|----------------------|
|--------------|------------------|----------------------|


   Q   S S E    E  S S  E  E    +Q    +E   S  S    Q   E  E
|------------|-10-14------15-|-(15)--(15)-------|-------------|
|------------|----15------15-|-(15)--(15)----13-|-15--17------|
|------------|---------14----|------------14----|-------------|
|-12--12-----|---------------|------------------|--------19---|
|------------|---------------|------------------|-------------|
|------------|---------------|------------------|-------------|


  E E Q    W      W          E E  E E   E E Q
|--------|------|----------|----------|--------|
|--------|------|----------|----------|--------|
|-7------|------|----------|--------7-|-7------|
|-0------|------|----------|---7-10-0-|-0------|
|--------|------|----------|---0------|--------|
|--------|------|----------|------8---|--------|


  W          W          E E  E E   E E Q
|----------|----------|----------|----------|
|----------|----------|----------|----------|
|----------|----------|--------7-|-7--------|
|----------|----------|---7-10-0-|-0--------|
|----------|----------|---0------|----------|
|----------|----------|------8---|----------|


  W      W          E E  E E   E E Q
|------|----------|----------|--------|
|------|----------|----------|--------|
|------|----------|--------7-|-7------|
|------|----------|---7-10-0-|-0------|
|------|----------|---0------|--------|
|------|----------|------8---|--------|


  W          W      E E  E E   E E Q    W
|----------|------|----------|--------|------|
|----------|------|----------|--------|------|
|----------|------|--------7-|-7------|------|
|----------|------|---7-10-0-|-0------|------|
|----------|------|---0------|--------|------|
|----------|------|------8---|--------|------|


  W      E E  E E   E E Q    W       H       +H       Q  S S E    E  S S E  E
|------|----------|--------|------|-10----|-(10)----|----------|-10-14-----15-|
|------|----------|--------|------|--8----|--(8)----|----------|----15-----15-|
|------|--------7-|-7------|------|--7----|--(7)----|-7--7-----|--------------|
|------|---7-10-0-|-0------|------|-------|---------|----------|--------------|
|------|---0------|--------|------|-------|---------|----------|--------------|
|------|------8---|--------|------|-------|---------|----------|--------------|


   +Q    +E   S  S    S  S  S  S  S  S  E    Q   S S E
|-(15)--(15)-------|----------------------|------------|
|-(15)--(15)----13-|-15-13----13-15-13----|------------|
|------------14----|-------14----------14-|------------|
|------------------|----------------------|-12--12-----|
|------------------|----------------------|------------|
|------------------|----------------------|------------|


   E  S S  E  E    +Q    +E   S  S    Q   E  E    Q   S S E
|-10-14------15-|-(15)--(15)-------|-----------|--------------|
|----15------15-|-(15)--(15)----13-|-15--17----|--------------|
|---------14----|------------14----|-----------|--------------|
|---------------|------------------|--------19-|--------------|
|---------------|------------------|-----------|-17--17-------|
|---------------|------------------|-----------|--------------|


   E  S S E  E    +Q    +E   S  S    S  S  S  S  S  S  E
|----14-----15-|-(15)--(15)-------|----------------------|
|-15-15-----15-|-(15)--(15)----13-|-15-13----13-15-13----|
|--------------|------------14----|-------14----------14-|
|--------------|------------------|----------------------|
|--------------|------------------|----------------------|
|--------------|------------------|----------------------|


   Q   S S E    E  S S  E  E    +Q    +E   S  S    Q   E  E
|------------|-10-14------15-|-(15)--(15)-------|-------------|
|------------|----15------15-|-(15)--(15)----13-|-15--17------|
|------------|---------14----|------------14----|-------------|
|-12--12-----|---------------|------------------|--------19---|
|------------|---------------|------------------|-------------|
|------------|---------------|------------------|-------------|


   H       +H        +H        +H
|-------|---------|---------|---------|
|-------|---------|---------|---------|
|-------|---------|---------|---------|
|-------|---------|---------|---------|
|-17----|-(17)----|-(17)----|-(17)----|
|-------|---------|---------|---------|


   H       +H        +H        +H        H
|-------|---------|---------|---------|-------|
|-------|---------|---------|---------|-------|
|-------|---------|---------|---------|-14----|
|-------|---------|---------|---------|-------|
|-15----|-(15)----|-(15)----|-(15)----|-------|
|-------|---------|---------|---------|-------|


   +H        +H        +H        H       +H
|---------|---------|---------|-------|---------|
|---------|---------|---------|-------|---------|
|-(14)----|-(14)----|-(14)----|-------|---------|
|---------|---------|---------|-------|---------|
|---------|---------|---------|-15----|-(15)----|
|---------|---------|---------|-------|---------|


   +H        +H        H       E.  S  +E   E
|---------|---------|-------|----------------|
|---------|---------|-17----|-17--17-(17)-15-|
|---------|---------|-------|----------------|
|---------|---------|-------|----------------|
|-(15)----|-(15)----|-------|----------------|
|---------|---------|-------|----------------|


   H       +H        H       E.  S  +E   E
|-------|---------|-------|----------------|
|-------|---------|-17----|-17--15-(15)----|
|-------|---------|-------|-------------14-|
|-17----|-(17)----|-------|----------------|
|-------|---------|-------|----------------|
|-------|---------|-------|----------------|


   H       +H        H       E.  S  +E   E   H
|-------|---------|-12----|-12--10-(10)-10-|------|
|-12----|-(12)----|-------|----------------|-8----|
|-------|---------|-------|----------------|------|
|-------|---------|-------|----------------|------|
|-------|---------|-------|----------------|------|
|-------|---------|-------|----------------|------|


  H       H       E.  S  +E   E    H
|------|-12----|-12--10-(10)-10-|-------|
|------|-------|----------------|-12----|
|-9----|-------|----------------|-------|
|------|-------|----------------|-------|
|------|-------|----------------|-------|
|------|-------|----------------|-------|


   +Q    E E    E E Q    Q   Q     E  E Q    Q   E E
|------------|---------|--------|----------|---------|
|-(12)-------|---------|--------|----------|---------|
|-------13---|-12------|--------|----------|----13---|
|------------|---------|----15--|-12-12----|---------|
|------------|---------|--------|----------|----11---|
|-------16---|-15------|----13--|-10-10----|---------|


   E E Q    Q   Q     E  E Q    E E  E E   E E Q
|---------|--------|----------|----------|--------|
|---------|--------|----------|----------|--------|
|-12------|--------|----------|--------7-|-7------|
|---------|----15--|-12-12----|---7-10-0-|-0------|
|---------|--------|----------|---0------|--------|
|-15------|----13--|-10-10----|------8---|--------|


  W          W          E E  E E   E E Q
|----------|----------|----------|----------|
|----------|----------|----------|----------|
|----------|----------|--------7-|-7--------|
|----------|----------|---7-10-0-|-0--------|
|----------|----------|---0------|----------|
|----------|----------|------8---|----------|


  W      W          E E  E E   E E Q
|------|----------|----------|--------|
|------|----------|----------|--------|
|------|----------|--------7-|-7------|
|------|----------|---7-10-0-|-0------|
|------|----------|---0------|--------|
|------|----------|------8---|--------|


  W          W      E E  E E   E E Q    W
|----------|------|----------|--------|------|
|----------|------|----------|--------|------|
|----------|------|--------7-|-7------|------|
|----------|------|---7-10-0-|-0------|------|
|----------|------|---0------|--------|------|
|----------|------|------8---|--------|------|


  W      E E  E E   E E Q    W
|------|----------|--------|----------|
|------|----------|--------|----------|
|------|--------7-|-7------|----------|
|------|---7-10-0-|-0------|----------|
|------|---0------|--------|----------|
|------|------8---|--------|----------|


  W      E E  E E   E E Q    W       H
|------|----------|--------|------|-10----|
|------|----------|--------|------|--8----|
|------|--------7-|-7------|------|--7----|
|------|---7-10-0-|-0------|------|-------|
|------|---0------|--------|------|-------|
|------|------8---|--------|------|-------|


   +H       Q  S S E    E  S S E  E    +Q    +E   S  S
|-(10)----|----------|-10-14-----15-|-(15)--(15)-------|
|--(8)----|----------|----15-----15-|-(15)--(15)----13-|
|--(7)----|-7--7-----|--------------|------------14----|
|---------|----------|--------------|------------------|
|---------|----------|--------------|------------------|
|---------|----------|--------------|------------------|


   S  S  S  S  S  S  E    Q   S S E    E  S S  E  E
|----------------------|------------|-10-14------15---|
|-15-13----13-15-13----|------------|----15------15---|
|-------14----------14-|------------|---------14------|
|----------------------|-12--12-----|-----------------|
|----------------------|------------|-----------------|
|----------------------|------------|-----------------|


   +Q    +E   S  S    Q   E  E    Q   S S E    E  S S E  E
|-(15)--(15)-------|-----------|------------|----14-----15-|
|-(15)--(15)----13-|-15--17----|------------|-15-15-----15-|
|------------14----|-----------|------------|--------------|
|------------------|--------19-|------------|--------------|
|------------------|-----------|-17--17-----|--------------|
|------------------|-----------|------------|--------------|


   +Q    +E   S  S    S  S  S  S  S  S  E    Q   S S E
|-(15)--(15)-------|----------------------|--------------|
|-(15)--(15)----13-|-15-13----13-15-13----|--------------|
|------------14----|-------14----------14-|--------------|
|------------------|----------------------|-12--12-------|
|------------------|----------------------|--------------|
|------------------|----------------------|--------------|


   E  S S  E  E    +Q    +E   S  S    Q   E  E   W
|-10-14------15-|-(15)--(15)-------|-----------|------|
|----15------15-|-(15)--(15)----13-|-15--17----|------|
|---------14----|------------14----|-----------|------|
|---------------|------------------|--------19-|------|
|---------------|------------------|-----------|------|
|---------------|------------------|-----------|------|


  W          E  E  +S   S  +E     E.  S  +E   E    H
|----------|-------------------|----------------|-------|
|----------|---17-(17)-17-(17)-|-17--17-(17)-17-|-17----|
|----------|-------------------|----------------|-------|
|----------|-------------------|----------------|-------|
|----------|-------------------|----------------|-------|
|----------|-------------------|----------------|-------|


   +H        +E   E  +S   S  +E     E.  S  +E   E    H
|---------|----------------------|----------------|-------|
|-(17)----|-(17)-17-(17)-17-(17)-|-17--17-(17)-17-|-15----|
|---------|----------------------|----------------|-------|
|---------|----------------------|----------------|-------|
|---------|----------------------|----------------|-------|
|---------|----------------------|----------------|-------|


   +H        +E   E  +S   S  +E     E.  S  +E   E    H
|---------|----------------------|----------------|-------|
|-(15)----|-(15)-17-(17)-15-(15)-|-17--15-(15)-17-|-15----|
|---------|----------------------|----------------|-------|
|---------|----------------------|----------------|-------|
|---------|----------------------|----------------|-------|
|---------|----------------------|----------------|-------|


   +H        +E   E  +S   S  +E     E.  S  +E   E    H
|---------|----------------------|----------------|-------|
|-(15)----|-(15)-17-(17)-17-(17)-|-17--17-(17)-17-|-17----|
|---------|----------------------|----------------|-------|
|---------|----------------------|----------------|-------|
|---------|----------------------|----------------|-------|
|---------|----------------------|----------------|-------|


   +H        +E   E  +S   S  +E     E.  S  +E   E    H
|---------|----------------------|----------------|-------|
|-(17)----|-(17)-17-(17)-17-(17)-|-17--17-(17)-15-|-------|
|---------|----------------------|----------------|-------|
|---------|----------------------|----------------|-17----|
|---------|----------------------|----------------|-------|
|---------|----------------------|----------------|-------|


   +H        +E   E  +S   S  +E     E.  S  +E   E    H
|---------|----------------------|----------------|-------|
|---------|------17-(17)-17-(17)-|-17--17-(17)-17-|-15----|
|---------|----------------------|----------------|-------|
|-(17)----|-(17)-----------------|----------------|-------|
|---------|----------------------|----------------|-------|
|---------|----------------------|----------------|-------|


   +H        +E   E  +S   S  +E     E.  S  +E   E    H
|---------|----------------------|----------------|-------|
|-(15)----|-(15)-17-(17)-15-(15)-|-17--15-(15)-17-|-15----|
|---------|----------------------|----------------|-------|
|---------|----------------------|----------------|-------|
|---------|----------------------|----------------|-------|
|---------|----------------------|----------------|-------|


   +H        +E   E  +S   S  +E
|---------|----------------------|
|-(15)----|-(15)-17-(17)-17-(17)-|
|---------|----------------------|
|---------|----------------------|
|---------|----------------------|
|---------|----------------------|


   E.  S  +E   E    H       +H        +E  E Q
|----------------|-------|---------|-----------*|
|-17--17-(17)-17-|-17----|-(17)----|-(17)------*|
|----------------|-------|---------|-----------*|
|----------------|-------|---------|-----------*|
|----------------|-------|---------|-----------*|
|----------------|-------|---------|-----------*|


Duration Legend
---------------
W - whole; H - half; Q - quarter; E - 8th; S - 16th; T - 32nd; X - 64th; a - acciaccatura
+ - note tied to previous; . - note dotted; .. - note double dotted
Uncapitalized letters represent notes that are staccato (1/2 duration)
Irregular groupings are notated above the duration line
Duration letters will always appear directly above the note/fret number it represents the
duration for.  Duration letters with no fret number below them represent rests.  Multi-
bar rests are notated in the form Wxn, where n is the number of bars to rest for.  Low
melody durations appear below the staff

Tablature Legend
----------------
 h   - hammer-on
 p   - pull-off
 b   - bend
 pb  - pre-bend
 r   - bend release (if no number after the r, then release immediately)
 /\  - slide into or out of (from/to "nowhere")
 s   - legato slide
 S   - shift slide
  - natural harmonic
[n]  - artificial harmonic
n(n) - tapped harmonic
 ~   - vibrato
 tr  - trill
 T   - tap
 TP  - trem. picking
 PM  - palm muting
\n/  - tremolo bar dip; n = amount to dip
 \n  - tremolo bar down
 n/  - tremolo bar up
/n\  - tremolo bar inverted dip
 =   - hold bend; also acts as connecting device for hammers/pulls
 <>  - volume swell (louder/softer)
 x   - on rhythm slash represents muted slash
 o   - on rhythm slash represents single note slash

Misc Legend
-----------
 |  - bar
||  - double bar
||o - repeat start
o|| - repeat end
*|  - double bar (ending)
 :  - bar (freetime)
 $  - Segno
 &  - Coda
Tempo markers -  = BPM(8/16=s8/s16), where s8 = swing 8ths, s16 = swing 16ths
Tap to rate this tab
# A B C D E F G H I J K L M N O P Q R S T U V W X Y Z