Song name
# A B C D E F G H I J K L M N O P Q R S T U V W X Y Z

Jimi Hendrix - Up From The Skies tab

-------------------------------------------------------------

    JIMI HENDRIX - UP FROM THE SKIES. From AXIS: BOLD AS LOVE 
                   album. Released on the 1st December 1967.

-------------------------------------------------------------

    Tabbed by:PJVillanueva





It seems that Jimmy used to tune his guitar a half tone down.
This surely was an added little help, along with the lightest
string gauges available( ), which could let him produce those
impressive tone and a half upwards bendings that could make
your hair stand on end. (Maybe it helped also with his singing)
That's why you must tune your guitar a half step down If you
want to match the sound of most of his recorded output.
Since Up From The Skies' main tonal center is F#, you can also
in this case keep the regular tuning and use a capo on the 1st
fret to play the song in E, using the same chord shapes. This 
way it could be easier to play for some people. 







I just want to talk to you
I won’t uh do you no harm
I just want to know about your different lives
Of this here people farm
I heard some of you got your families
Livin' in cages tall and cold
And some just stay there and dust away
Past the age of old.
Is this true ? 
Please let me talk to you.

I just wanna know about
The rooms behind your minds
Uh do I see a vacuum there
Or am I going blind ? 
Or is it just uh remains of vibrations
And echoes long ago ? 
Uh things like ’love the world’ and uh
Uh ’let your fancy flow’
Is this true ? 
Please let me talk to you
Let me talk to you.

I have lived here before
The days of ice
And of course this is why
I’m so concerned
And I come back to find
The stars misplaced
And the smell of a world
That is burned
A smell of a world
That is burned.

Yeah well, maybe, hmm...
Maybe it’s just a... change of climate
Hmm, hmm...
Well I can dig it
I can dig it, baby
I just wanna see.

So where do I purchase my ticket ? 
I’d just like to have a ringside seat
I wanna know about the new Mother Earth
I wanna hear and see everything
I wanna hear and see everything
I wanna hear and see everything
Yeah...

Aww, shucks
If my daddy could see me now
Everything, everything, everything, oh everything.





    12/8


                                   x  X     x        X  x   xxx  x  x  x

e|-------- -------- -------- --------|-------- -------- -------- --------|
B|-----------------------------------|-----------------------------------|
G|-----------------------------------|-----------------------------------|
D|-----------------------------------|-----------------------------------|
A|-----------------------------------|-----------------------------------|
E|-----------------------------------|-----------------------------------|
                                                                       



  B7sus2                              F#7
e|2------- 2------- 2------- 2-------|2------- 2------- 2-----2- ------2-|
B|2--------2--------2--------2-------|2--------2--------2-----2--------2-|
G|2--------2--------2--------2-------|3--------3--------3-----3--------3-|
D|4--------4--------4--------4-------|2--------2--------2-----2--------2-|
A|2--------2--------2--------2-------|4--------4--------4-----4--------4-|
E|-----------------------------------|2--------2--------2-----2--------2-|
                  I just     want  to talk     to    you



  B7sus2                              F#7
e|2------- 2------- 2------- 2-----2-|2------- 2-----2- 2------- 2-----2-|
B|2--------2--------2--------2-----2-|2--------2-----2--2--------2-----2-|
G|2--------2--------2--------2-----2-|3--------3-----3--3--------3-----3-|
D|4--------4--------4--------4-----4-|2--------2-----2--2--------2-----2-|
A|2--------2--------2--------2-----2-|4--------4-----4--4--------4-----4-|
E|-----------------------------------|2--------2-----2--2--------2-----2-|
  I        won't uh do    you no   harm                                I



  B7sus2                        Bmaj9 F#7
e|2------- 2-----2- 2------- 2-----2-|2------- 2------- 2------- 2-------|
B|2--------2-----2--2--------2-----2-|2--------2--------2--------2-------|
G|2--------2-----2--2--------2-----3-|3--------3--------3--------3-------|
D|4--------4-----4--4--------4-----4-|2--------2--------2--------2-------|
A|2--------2-----2--2--------2-----2-|4--------4--------4--------4-------|
E|-----------------------------------|2--------2--------2--------2-------|
  just     want  to know about     your       different lives          of



  B7sus2                     Bmaj9    F#7
e|2------- 2------- 2------- 2-------|2------- 2--2---- 2------- 2-------|
B|2--------2--------2--------2-------|2--------2--2-----2--------2-------|
G|2--------2--------2--------3-------|3--------3--3-----3--------3-------|
D|4--------4--------4--------4-------|2--------2--2-----2--------2-------|
A|2--------2--------2--------2-------|4--------4--4-----4--------4-------|
E|-----------------------------------|2--------2--2-----2--------2-------|
  this     here     people         farm                                I



  B7sus2                     Bmaj9    F#7
e|2------- 2------- 2------- 2-------|2------- 2------- 2------- 2-------|
B|2--------2--------2--------2-------|2--------2--------2--------2-------|
G|2--------2--------2-H-3----3-------|3--------3--------3--------3-----2-|
D|4--------4--------4--------4-------|2--------2--------2--------2-----2-|
A|2--------2--------2--------2-------|4--------4--------4--------4-----2-|
E|-----------------------------------|2--------2--------2--------2-------|
  heard    some     got   your     families             livin'   in
              of you 


  B7sus2                     C7sus2   F#7
e|2------- 2------- 2------- 3-------|2------- 2------- 2-----2- 2-------| 
B|2--------2--------2--------3-------|2--------2--------2-----2--2-------|
G|2--------2--------2--------3-------|3--------3--------3-----3--3-------|
D|4--------4--------4--------5-------|2--------2--------2-----2--2-------|
A|2--------2--------2--------3-------|4--------4--------4-----4--4-------|
E|-----------------------------------|2--------2--------2-----2--2-------|
  cages             tall  and      cold                                And



  B7sus2                     Bmaj9    F#7
e|2------- 2------- 2------- 2-------|2------- 2------- 2-----2- 2-------|
B|2--------2--------2--------2-------|2--------2--------2-----2--2-------|
G|2--------2--------2--------3-------|3--------3--------3-----3--3-------|
D|4--------4--------4--------4-------|2--------2--------2-----2--2-------|
A|2--------2--------2--------2-------|4--------4--------4-----4--4-------|
E|-----------------------------------|2--------2--------2-----2--2-------|
  some     just    stay there and           dust     away



  B7sus2                                       F#7
e|2------- 2------- 2------- 2-------|-------- 2------- 2------- 2-------|
B|2--------2--------2--------2-------|---------2--------2--------2-------|
G|2--------2--------2--------2-------|---------3--------3--------3-------|
D|4--------4--------4--------4-------|---------2--------2--------2-------|
A|2--------2--------2--------2-------|---------4--------4--------4-------|
E|-----------------------------------|---------2--------2--------2-------|
  Past          the age   of       old.



  B7sus2                              F#7
e|2------- 2------- 2------- 2-------|2------- 2------- 2------- 2-----2-|
B|2--------2--------2--------2-------|2--------2--------2--------2-----2-|
G|2--------2--------2--------2-------|3--------3--------3--------3-----3-|
D|4--------4--------4--------4-------|2--------2--------2--------2-----2-|
A|2--------2--------2--------2-------|4--------4--------4--------4-----4-|
E|-----------------------------------|2--------2--------2--------2-----2-|
                    Is       this     true?



  B7sus2                     Bmaj9    F#7
e|2------- 2------- 2------- 2-------|2------- 2------- 2------- 2-------|
B|2--------2--------2--------2-------|2--------2--------2--------2-------|
G|2--------2--------2--------3-------|3--------3--------3--------3-------|
D|4--------4--------4--------4-------|2--------2--------2--------2-------|
A|2--------2--------2--------2-------|4--------4--------4--------4-------|
E|-----------------------------------|2--------2--------2--------2-------|
  Please,  let   me talk     to    you



  C#7sus2                    C#maj9   Ab7
e|4------- 4------- 4------- 4-------|4------- -------- -------- 4-------|
B|4--------4--------4--------4-------|4--------------------------4-------|
G|4--------4--------4-H-5----5-------|5--------------------------5-------|
D|6--------6--------6--------6-------|4--------------------------4-------|
A|4--------4--------4--------4-------|6--------------------------6-------|
E|-----------------------------------|4--------------------------4-------|
                 I  just     wanna    know     about                   the



  C#7sus2                    C#maj9   Ab7
e|4------- 4------- 4------- 4-------|4------- 4------- 4------- 4-------|
B|4--------4--------4--------4-------|4--------4--------4--------4-------|
G|4--------4--------4-H-5----5-------|5--------5--------5--------5-------|
D|6--------6--------6--------6-------|4--------4--------4--------4-------|
A|4--------4--------4--------4-------|6--------6--------6--------6-------|
E|-----------------------------------|4--------4--------4--------4-------|
  rooms          behind      your  minds                               Uh 



  C#7sus2                    C#maj9            Ab7
e|4------- 4------- 4------- 4-------|-------- 4------- 4-----4- 4-------|
B|4--------4--------4--------4-------|---------4--------4-----4--4-------|
G|4--------4--------4-H-5----5-------|---------5--------5-----5--5-------|
D|6--------6--------6--------6-------|---------4--------4-----4--4-------|
A|4--------4--------4--------4-------|---------6--------6-----6--6-------|
E|-----------------------------------|---------4--------4-----4--4-------|  
  do       I        see      a     vacuum            there             or



  C#7sus2                    C#maj9   Ab7
e|4------- 4------- 4------- 4-------|4------- 4------- 4------- 4-------|
B|4--------4--------4--------4-------|4--------4--------4--------4-------|
G|4--------4--------4-H-5----5-------|5--------5--------5--------5-------|
D|6--------6--------6--------6-------|4--------4--------4--------4-------|
A|4--------4--------4--------4-------|6--------6--------6--------6-------|
E|-----------------------------------|4--------4--------4--------4-------|
  am       I        going          blind?                              Or



  C#7sus2                             Ab7
e|4------- 4------- 4------- --------|4-----4- 4------- 4------- 4-------|
B|4--------4--------4----------------|4-----4--4--------4--------4-------|
G|4--------4--------4-H-5------------|5-----5--5--------5--------5-------|
D|6--------6--------6----------------|4-----4--4--------4--------4-------|
A|4--------4--------4----------------|6-----6--6--------6--------6-------|
E|-----------------------------------|4-----4--4--------4--------4-------|
  is    it just  uh          remains                 of vibrations



  C#7sus2                    C#maj9   Ab7
e|4------- 4------- 4------- 4-------|4------- 4------- 4-----4- 4-------|
B|4--------4--------4--------4-------|4--------4--------4-----4--4-------|
G|4--------4--------4--------5-------|5--------5--------5-----5--5-------|
D|6--------6--------6--------6-------|4--------4--------4-----4--4-------|
A|4--------4--------4--------4-------|6--------6--------6-----6--6-------|
E|-----------------------------------|4--------4--------4-----4--4-------|
                and echoes   long  ago ?                               Uh



  C#7sus2                    C#maj9   Ab7
e|4------- 4-----4- 4------- 4-------|4------- 4------- 4------- 4-------|
B|4--------4-----4--4--------4-------|4--------4--------4--------4-------|
G|4--------4-----4--4--H--5--5-------|5--------5--------5--------5-------|
D|6--------6-----6--6--------6-------|4--------4--------4--------4-------|
A|4--------4-----4--4--------4-------|6--------6--------6--------6-------|
E|-----------------------------------|4--------4--------4--------4-------|
  things   like    ’love     the   world’   and      uh                Uh
 


  C#7sus2                    C#maj9   Ab7
e|4-----4- 4------- 4-4----- 4-----4-|4-----4- 4------- 4------- 4-------|
B|4-----4--4--------4-4------4-----4-|4-----4--4--------4--------4-------|
G|4-----4--4--------4-5------5-----5-|5-----5--5--------5--------5-------|
D|6-----6--6--------6-6------6-----6-|4-----4--4--------4--------4-------|
A|4-----4--4--------4-4------4-----4-|6-----6--6--------6--------6-------|
E|-----------------------------------|4-----4--4--------4--------4-------|
  ’let     your     fancy          flow’



  B7sus2                              F#7
e|2------- 2------- 2------- 2-------|2------- 2------- 2-----2- 2-------|
B|2--------2--------2--------2-------|2--------2--------2-----2--2-------|
G|2--------2--------2--------2-------|3--------3--------3-----3--3-------|
D|4--------4--------4--------4-------|2--------2--------2-----2--2-------|
A|2--------2--------2--------2-------|4--------4--------4-----4--4-------|
E|-----------------------------------|2--------2--------2-----2--2-------|
                    Is    this     true?                               Please,



  B7sus2                     Bmaj9    F#7
e|2------- 2------- 2------- 2-------|2------- 2------- 2------- 2-----2-|
B|2--------2--------2--------2-------|2--------2--------2--------2-----2-|
G|2--------2--------2--------3-------|3--------3--------3--------3-----3-|
D|4--------4--------4--------4-------|2--------2--------2--------2-----2-|
A|2--------2--------2--------2-------|4--------4--------4--------4-----4-|
E|-----------------------------------|2--------2--------2--------2-----2-|
           let   me talk     to    you



  B7sus2                     Bmaj9    F#7
e|2------- 2------- 2------- 2-------|2------- 2-----2- 2------- --------|
B|2--------2--------2--------2-------|2--------2-----2--2----------------|
G|2--------2--------2--H--3--3-------|3--------3-----3--3----------------|
D|4--------4--------4--------4-------|2--------2-----2--2----------------|
A|2--------2--------2--------2-------|4--------4-----4--4----------------|
E|-----------------------------------|2--------2-----2--2------3/4-------|
                    let   me talk  to you



                                      Db5                        C5
e|-------- -------- -------- --------|-------- -------- -------- --------|
B|-----------------------------------|-----------------------------------|
G|-----------------------------------|---------6-----------------5-------|
D|-----------------------------------|---------6-----------------5-------|
A|4--------------------------4-------|4--------------------------3-------|
E|------------------------4--------4-|-----------------------------------|
                             I   have lived    here  before



  B5                                                             C5
e|-------- -------- -------- --------|-------- -------- -------- --------|
B|-----------------------------------|-----------------------------------|
G|4--------------------------4-------|4-----------------4--------5-------|
D|4--------------------------4-------|4-----------------4--------5-------|
A|2--------------------------2-------|2-----------------2--------3-------|
E|------------------------2--------2-|-----------------------------------|
                 the days    of       ice



  Db5                                                            C5
e|-------- -------- -------- --------|-------- -------- -------- --------|
B|-----------------------------------|-----------------------------------|
G|6--------------------------6-------|6-----------------6--------5-------|
D|6--------------------------6-------|6-----------------6--------5-------|
A|4--------------------------4-------|4-----------------4--------3-------|
E|------------------------4--------4-|-----------------------------------|
                         And of    course      this  is why      I'm



  b5                                                             C7sus2
e|-------- -------- -------- --------|-------- -------- -------- 3-------|
B|-----------------------------------|---------------------------3-------|
G|4----------------------------------|4--------4--------4--------3-------|
D|4----------------------------------|4--------4--------4--------5-------|
A|2--------------------------2-------|2--------2--------2--------3-------|
E|------------------------2--------2-|-----------------------------------|
  so       concerned



  C#7sus2                                                        C7sus2
e|4------- -------- 4------- --------|4------- ------4- 4------- 3-------|
B|4-----------------4----------------|4--------------4--4--------3-------|
G|4-----------------4----------------|4--------------4--4--------3-------|
D|6-----------------6----------------|6--------------6--6--------5-------|
A|4-----------------4--------4-------|4--------------4--4--------3-------|
E|------------------------4--------4-|-----------------------------------|
           And   I  come  back     to find



  B7sus2                  
e|2------- -------- 2------- --------|2------- ------2- -2------ --------|
B|2-----------------2----------------|2--------------2---2---------------|
G|2-----------------2----------------|2--------------2---2---------------|
D|4-----------------4----------------|4--------------4---4---------------|
A|2-----------------2----------------|2--------------2---2---------------|
E|-----------------------------------|-----------------------------------|
           the   stars       misplaced


  Db7sus2                                                        C7sus2
e|4------- -------- 4-4-4--- --------|4------- -------- 4------- 3-------|
B|4-----------------4-4-4------------|4-----------------4--------3-------|
G|4-----------------4-4-4------------|4-----------------4--------3-------|
D|6-----------------6-6-6------------|6-----------------6--------5-------|
A|4-----------------4-4-4------------|4-----------------4--------3-------|
E|-----------------------------------|-----------------------------------|
           And  the smell    of    a  world                   that's   burned



  B7sus2                  
e|2------- -------- 2-----2- --------|2------- -------- 2-----2- 2-------|
B|2-----------------2-----2----------|2-----------------2-----2--2-------|
G|2-----------------2-----2----------|2-----------------2-----2--2-------|
D|4-----------------4-----4----------|4-----------------4-----4--4-------|
A|2-----------------2-----2----------|2-----------------2-----2--2-------|
E|-----------------------------------|-----------------------------------|




  Db7sus2
e|4------- -------- -------- --------|-------- -------- -------- --------|
B|4----------------------------------|-----------------------------------|
G|4----------------------------------|-----------------------------------|
D|6----------------------------------|---------2-----4--2---~------------|
A|4----------------------------------|------4----------------------------|
E|-----------------------------------|-----------------------------------|
                 A  smell    of    a  world                            that




e|-------- -------- -------- --------|-------- -------- -------- --------|
B|-----------------------------------|-----------------------------------|
G|-----------------------------------|-----------------------------------|
D|-----------------------------------|4B5---2--4--------2B3--~---4-------|
A|------------------2-----4--------2-|---------------4-------------------|
E|---------------4-------------------|-----------------------------------|
      is   burned                                          Yeah, well




e|-------- -------- -------- --------|-------- -------- -------- --------|
B|-----------------------------------|------------------5B6--------------|
G|-----------------------------------|------6----------------------------|
D|---------------------------------2-|4/6------6-------------------------|
A|------------------------2--4-------|-----------------------------------|
E|-----------------------------------|-----------------------------------|
  maybe hmmm                                                     Maybe
                                                                    it's
                                                                       just


e|-------- -------- -------- --------|-------- -------- -------- --------|
B|------7B9---7B9---7B9---7B9---7B9--|7B9---7--~-------------------------|
G|-----------------------------------|-----------------------------------|
D|-----------------------------------|-----------------------------------|
A|-----------------------------------|-----------------------------------|
E|-----------------------------------|-----------------------------------|
      a                                                      change    of




e|-------- -------- -------- --------|-------- -------- -------- --------|
B|-----------------------------------|-----------------------------------|
G|-----------------------------------|------6-----------4----------------|
D|---------------------------------2-|4/6------6--------------6\4-2------|
A|------------------------2--4-------|-----------------------------------|
E|-----------------------------------|-----------------------------------|
  climate                                                              hmm,




e|-------- -------- -------- --------|-------- -------- -------- --------|
B|-----------------------------------|-----------------------------------|
G|-----------------------------------|------------------2--------x-------|
D|------------------4-----2----------|4--------2--------2--------x-------|
A|------2--4-----2-----------4-------|---------------4-------------------|
E|-----------------------------------|-----------------------------------|
       hmmm                                                            Well 



  Db7sus2
e|4------- 4------- 4------- --------|4------- 4------- 4------- 4-------|
B|4--------4--------4----------------|4--------4--------4--------4-------|
G|4--------4--------4----------------|4--------4--------4--------4-------|
D|6--------6--------6----------------|6--------6--------6--------6-------|
A|4--------4--------4--------4-------|4--------4--------4--------4-------|
E|------------------------4--------4-|------------------------4----------|
  I  can  dig   it                               I can dig it, baby

 

  E7
e|-------- -------- -------- --------|-------- -------- -------- --------|
B|9--------9--------9--------9-------|9--------9--------9----------------|
G|7--------7--------7--------7-------|7--------7--------7----------------|
D|9--------9--------9--------9-------|9--------9--------9----------------|
A|7--------7--------7--------7-------|7--------7--------7--------11-\----|
E|------------------------7--------7-|-----------------------------------|  
                         I just wanna see



  B7sus2                              F#7
e|2-----2- 2------- 2-----2- 2-------|2-----2- 2-----2- 2-----2- 2-----2-|
B|2-----2--2--------2-----2--2-------|2-----2--2-----2--2-----2--2-----2-|
G|2-----2--2--------2-----2--2-------|3-----3--3-----3--3-----3--3-----3-|
D|4-----4--4--------4-----4--4-------|2-----2--2-----2--2-----2--2-----2-|
A|2-----2--2--------2-----2--2-------|4-----4--4-----4--4-----4--4-----4-|
E|-----------------------------------|2-----2--2-----2--2-----2--2-----2-|
                 So where    do    I  purchase my    ticket            I'd



  B7sus2                        Bmaj9 F#7
e|2-----2- 2-----2- 2-----2- 2-----2-|2------- 2-----2- 2-----2- --------|
B|2-----2--2-----2--2-----2--2-----2-|2--------2-----2--2-----2----------|
G|2-----2--2-----2--2-----2--2--H--3-|3--------3-----3--3-----3----------|
D|4-----4--4-----4--4-----4--4-----4-|2--------2-----2--2-----2----------|
A|2-----2--2-----2--2-----2--2-----2-|4--------4-----4--4-----4----------|
E|-----------------------------------|2--------2-----2--2-----2--5B6-----|
  just     like  to have  a           ringside       seat              I



  B7sus2                              F#7
e|2------- 2-----2- 2-----2- 2-------|2-----2- 2-----2- 2-----2- 2-------|
B|2--------2-----2--2-----2--2-------|2-----2--2-----2--2-----2--2-------|
G|2--------2-----2--2-----2--2-------|3-----3--3-----3--3-----3--3-------|
D|4--------4-----4--4-----4--4-------|2-----2--2-----2--2-----2--2-------|
A|2--------2-----2--2-----2--2-------|4-----4--4-----4--4-----4--4-------|
E|-----------------------------------|2-----2--2-----2--2-----2--2-------|
  wanna    know  about    the         new   Mother   Earth             I



  B7sus2                              F#7
e|2------- 2-----2- 2-----2- 2-------|2------- 2------- 2-----2- 2-------|
B|2--------2-----2--2-----2--2-------|2--------2--------2-----2--2-------|
G|2--------2-----2--2-----2--2-------|3--------3--------3-----3--3-------|
D|4--------4-----4--4-----4--4-------|2--------2--------2-----2--2-------|
A|2--------2-----2--2-----2--2-------|4--------4--------4-----4--4-------|
E|-----------------------------------|2--------2--------2-----2--2-------|
  wanna    hear and see               everything                       I



  B7sus2                     B7-9     F#7
e|2------- 2------- 2------- --------|2------- 2------- 2-----2- 2-------|
B|2--------2--------2--------1-------|2--------2--------2-----2--2-------|
G|2--------2--------2--------2-------|3--------3--------3-----3--3-------|
D|4--------4--------4--------1-------|2--------2--------2-----2--2-------|
A|2--------2--------2--------2-------|4--------4--------4-----4--4-------|
E|-----------------------------------|2--------2--------2-----2--2-------|
  wanna    hear and see               everything                       I



  B7sus2                     C-5      F#7
e|2------- 2------- 2------- --------|2------- 2------- -------- --------|
B|2--------2--------2----------------|2--------2--------5B7------5-----2-|
G|2--------2--------2--------5-------|3--------3-------------------------|
D|4--------4--------4--------4-------|2--------2-------------------------|
A|2--------2--------2--------3-------|4--------4-------------------------|
E|-----------------------------------|2--------2-------------------------|
  wanna    hear and see               everything  



e|-------- -------- -------- --------|-------- -------- -------- --------|
B|-----------------------------------|-----------------------------------|
G|4-B-6-------------6R4---2--4B6-----|4B6------4B6------4B6------4B6-----|
D|-----------------------------------|-----------------------------------|
A|-----------------------------------|-----------------------------------|
E|-----------------------------------|-----------------------------------|




e|-------- -------- -------- --------|------2- -------- 2------- --------|
B|-----------------------------------|---2-----5-B-7------5-P-2--------2-|
G|2--------2B3---4-----------------4-B6--------------------------4B6-----|
D|--4--------------------------------|-----------------------------------|
A|-----------------------------------|-----------------------------------|
E|-----------------------------------|-----------------------------------|




e|2------- -------- -------- --------|-------- -------- -------- --------|
B|--5-P-2-----2-----2-----4----------|------------------------4-----2----|
G|---------4B6---4--2-----4-----2----|4-----2-----4-----2-----4-----2----|
D|---------------------4-----4-----4-|---4-----4-----4-----4-----4-----4-|
A|-----------------------------------|-----------------------------------|
E|-----------------------------------|-----------------------------------|




e|-------- -------- -------- --------|-------- -------- -------- --------|
B|4-----------4-----------4-----2----|4-----2-----4-----2-----4-----2----|
G|4-----2-----4-----2-----4-----2----|4-----2-----4-----2-----4-----2----|
D|---4-----4-----4-----4-----4-----4-|---4-----4-----4-----4-----4-----4-|
A|-----------------------------------|-----------------------------------|
E|-----------------------------------|-----------------------------------|




e|-------- -------- ------2- --------|-------- -------- -------- --------|
B|---------------------2-----5-P-2---|-----------------------------------|
G|4-B-6--~------------------------4B6R4-P-2-------------11-------14------|
D|-----------------------------------|---------------11------------------|
A|-----------------------------------|-----------------------------------|
E|-----------------------------------|-----------------------------------|
                                            Aww,        shucks



e|-------- -------- -------- --------|-------- -------- -------- --------|
B|12B14----12B14----10-------10----10|---------------------------14B17---|
G|---------------------11------------|11-------9--------------11---------|
D|-----------------------------------|------------------14---------------|
A|-----------------------------------|-----------------------------------|
E|-----------------------------------|-----------------------------------|
                                                     If daddy could 
                                                                 see me now


e|-------- -------- -------- --------|-------- -------- -------- --------|
B|---------14----12-14----12---------|-----------------------------------|
G|---------------------------14-B-18-|14-------11----------------14B18---|
D|-----------------------------------|-----------------------------------|
A|-----------------------------------|-----------------------------------|
E|-----------------------------------|-----------------------------------|
  .................................Fade..................................



e|-------- -------- -------- --------|-------- -------- -------- --------|
B|-----------------------------------|-----------------------------------|
G|14B18----14B18----14B18----14-B-18-|18---------------R-----------------|
D|-----------------------------------|-----------------------------------|
A|-----------------------------------|-----------------------------------|
E|-----------------------------------|-----------------------------------|
                                                                 Everything
  .......................................................................



e|-------- -------- -------- --------|-------- -------- -------- 2-------|
B|-----------------------------------|-----------------------------------|
G|11----14-14B18R14----------11------|---------4B6------6----------------|
D|-----------------------------------|-----------------------------------|
A|-----------------------------------|-----------------------------------|
E|-----------------------------------|-----------------------------------|
                             Everything                          Everything..
  .......................................................................










        B  Bend
        R  Release
        /  Slide up
        \  Slide down
        H  Hammer-on
        P  Pull-off
        ~  Vibrato
        +  Harmonic
        x  Mute note
        .  Play note like a dot in standard notation
        ^  Ties two notes together
        (.  Pause
     



Tap to rate this tab
# A B C D E F G H I J K L M N O P Q R S T U V W X Y Z