Song name
# A B C D E F G H I J K L M N O P Q R S T U V W X Y Z

Jimi Hendrix - Burning Of The Midnight Lamp tab

Burning of the Midnight Lamp
By Jimi Hendrix
Transcribed by Max Newman

     ^ make that noise alot

|----------------------|-----------------------|
|----------------------|-----------------------|
|----------------------|-----------------------|
|-----3-2---0-0--------|---3-2---0-2-----------|
|---3-----3-----3-3----|-------3-----3---------|
|-3--------------------|-1---------------------|

|----------------------------------------------|
|----------------------------------------------|
|----------------------------------------------|
|-----3-2---0-0---0-2--2-3-2-0-2---------------|
|---1-----3-----3------------------------------|
|-1--------------------------------------------|

Well, Im too lazy to tab the cords. There is no point anyway because you can barely 
even here them during the song.
Tap to rate this tab
# A B C D E F G H I J K L M N O P Q R S T U V W X Y Z