Song name
# A B C D E F G H I J K L M N O P Q R S T U V W X Y Z

Jimi Hendrix - Voices tab

jimi hendrix 
voices
Tuning E-A-D-G-B-E
this tab is just a guide to show you the notes.

Main bass line riff
                         ||Fill #1                   ||Fill #2
E|-----------------------||--------------------------||--------------------------------||
B|-----------------------||--------------------------||--------------------------------||
G|-----------------------||--------------------------||--------------------------------||
D|-------------------2~--||--2--2--------------0H2---||--2--2--------------0H2(Trll)---||
A|--2--2-2--2-2--2-2-----||--2--2--5-H-7H5-----------||--2--2--5-H-7H5-----------------||
E|--0--0-0--0-0--0-3-----||--0--0-----------0-3------||--0--0-----------0-3------------||

lead that can be played over the top of the main riff

E|-------------------------||--------0----------------------------|
B|-------------------------||--------0----------------------------|
G|-------------------------||-------------------------------------|
D|--0H2H0H20H20H2----------||----2--------0H2--2----5-------------|
A|-------------------------||----2-------------2------5--5-H-7----|
E|-------------------------||----0------3------0------------------|

E|--------0----------------------------|
B|--------0---------------3------------|
G|---------------------------2BH0H-----|
D|----2---------0H2--2------------2----|
A|----2--------------2-----------------|
E|----0-------3------0-----------------|


THESE ARE SOME OF THE NOTES IN THE SOLO FILLS THAT YOU CAN PLAY ABOUT WITH TO IMPROVISE WITH

E|--12-----12--------------------------------------------------|
B|--12-15B-----15------------12B-------------------------------|
G|----------------14B--------12B-------------------------------|
D|--------------------------------------12H14(Trill)-----------|
A|--------------------------------12H14------------------------|
E|-------------------------------------------------------------|


Tap to rate this tab
 
# A B C D E F G H I J K L M N O P Q R S T U V W X Y Z