Song name
# A B C D E F G H I J K L M N O P Q R S T U V W X Y Z

Jimmy Bondoc - The Man I Was With You tab

the man i was with you - jimmy bondoc

tuning: Eb-Ab-Db-Gb-Bb-eb

                                  
eb-----32--------------------------------|
bb---------3----------------3-----3------|
gb------------2/4-2-------2-2h4---2h4----|     (2x)
db------------------5---5-------0--------|
ab---------------------------------------|
eb---3-----------------------------------|

eb-----------------------------------|
bb----------5/7--3---1---3---3-------|
gb--2h4-4/5-5/7--5---2---2---2h4-----|
db--0------------------0---0---------|
ab-------------------0---------------|
eb-----------------------------------|
Tap to rate this tab
# A B C D E F G H I J K L M N O P Q R S T U V W X Y Z