Song name
# A B C D E F G H I J K L M N O P Q R S T U V W X Y Z

Jimmy Buffett - Biloxi tab

Help us improve GuitareTab! Take a short survey!
Guitar 1                         
e|-9h10h12--10h9-------------------|
B|--------------10------10-10-7-10-|
G|---------------------------------|
D|---------------------------------|
A|---------------------------------|
E|---------------------------------|

.. from off towards New Orleans

e|-9h10h12--10h9-------------------|
B|--------------10------10-10-7-10-|
G|---------------------------------|
D|---------------------------------|
A|---------------------------------|
E|---------------------------------|
Related for Biloxi tab