Song name
# A B C D E F G H I J K L M N O P Q R S T U V W X Y Z

Jimmy Eat World - Damage tab

Intro (x2)
e|----------------------------|
B|----------------------------|
G|----------------------------|
D|-101010-10101010-1010101010-|
A|-101010-10101010-1010101010-|
D|-101010-10101010-1010101010-|

Verse 
Guitar 1
e|------------------------------------------|
B|-8-8-8--8-8-8-8---333-33---111-1111-11111-|
G|-0-0-0--0-0-0-0---000-00---000-0000-00000-|
D|-0-0-0--0-0-0-0---000-00---000-0000-00000-|
A|-101010-10101010--555-55---333-3333-33333-|
D|-101010-10101010--555-55---333-3333-33333-|

Guitar 2
 (x6)
e|-------|
B|-8--8--|
G|-7--7--|
D|-10-10-|
A|-------|
D|-------|

Pre Chorus
Guitar 1
e|-------------------------------|
B|-55-555--33-3333--11-11111-111-|
G|-00-000--00-0000--00-00000-000-|
D|-00-000--00-0000--00-00000-000-|
A|-77-777--55-5555--33-33333-333-|
D|-77-777--55-5555--33-33333-333-|

Guitar 2
e|---------------------|
B|-8--8----8--8--8--8--|
G|-7--7----7--7--7--7--|
D|-10-10---10-10-10-10-|
A|---------------------|
D|---------------------|

Chorus
Guitar 1
e|------------------------------------|
B|-8-8--8-8-8---33-3333--11-11111-111-|
G|-0-0--0-0-0---00-0000--00-00000-000-|
D|-0-0--0-0-0---00-0000--00-00000-000-|
A|-1010-101010--55-5555--33-33333-333-|
D|-1010-101010--55-5555--33-33333-333-|

Guitar 2
e|----------------------|
B|----------------------|
G|----------------------|
D|-10-12-10-12-10-12-10-|
A|----------------------|
D|----------------------|


Solo/Riff Before Verse 2
Guitar 1 (x2)
e|------------------------------------|
B|-8-8--8-8-8---33-3333--11-11111-111-|
G|-0-0--0-0-0---00-0000--00-00000-000-|
D|-0-0--0-0-0---00-0000--00-00000-000-|
A|-1010-101010--55-5555--33-33333-333-|
D|-1010-101010--55-5555--33-33333-333-|

Guitar 2
e|--------------------------------------|
B|--------------------------------8--8--|
G|--------------------------------7--7--|
D|---5---5--3-2-------5---5---3---10-10-|
A|-7---5--------3---7---5---------------|
D|--------------------------------------|

Repeat Verse
Repeat Chorus

Bridge

I'll say when I'm ready
Guitar 1
e|------------------|
B|-8--------1-------|
G|-0--------0-------|
D|-0--------0-------|
A|-10-------3-------|
D|-10-(x32)-3-(x32)-|

Guitar 2 (x2)

      (x2)             (x2)
e|------------------|------------------|
B|------------------|------------------|
G|-----5----5-------|-----5-----5------|
D|---5----5------5--|---5-----5-----5--|
A|-3----3-----3-----|------------------|
D|------------------|-3-----3-----3----|

Are we only damaging?
Guitar 1
e|-------------------------|
B|-5-------3-------1-------|
G|-0-------0-------0-------|
D|-0-------0-------0-------|
A|-7-------5-------3-------|
D|-7-(x16)-5-(x16)-3-(x32)-|

Guitar 2
e|---------------------------------------------------------------------|
B|---------------------------------------------------------------------|
G|-----5----5----------5-----5-----------5-----5----------5-----5------|
D|---5----5-----5----5-----5-----5-----5-----5----5-----5-----5-----5--|
A|-0----0-----0--------------------------------------------------------|
D|-----------------5-----5-----5-----3-----3-----3----3-----3-----3----|


I think there's a guitar repeating this riff in the background throughout
e|---------------------|
B|----13------13-------|
G|-12------12------12--|
D|---------------------|
A|---------------------|
D|---------------------|


Repeat Chorus

End on
e|------|
B|--8~~~|
G|--0~~~|
D|--0~~~|
A|-10~~~|
D|-10~~~|
Tap to rate this tab
 
# A B C D E F G H I J K L M N O P Q R S T U V W X Y Z