Song name
# A B C D E F G H I J K L M N O P Q R S T U V W X Y Z

Jimmy Eat World - Big Casino tab

Song-Big Casino
Artist-Jimmy Eat World
Album-Chase This Light
Transcribed by-Oldreich87
Tuning: Standard

Intro

Guitar 1  (Tremolo Picking)
e|-----------------------------------------------|
B|-----------------------------------------------|
G|-----------------------------------------------|
D|-----------------------------------------------|
A|-5-5-5-5-5-5-5-5-5-5-5-5-5-5-5-5-5-5-5-5-5-5-5-|
E|-----------------------------------------------|
  I'm not sure how many times this is but I think
  it's 24 or even 32 times.Listen to the
  song and figure it out.

Guitar 2
e|-----------------------------------------------|
B|-----------------------------------------------|
G|-7-7-7-7-7-------------------7-7-7-7-7---------|
D|-7-7-7-7-7--7-7-7-7-7-7-7-7--7-7-7-7-7---------|
A|-5-5-5-5-5--7-7-7-7-7-7-7-7--5-5-5-5-5---------|
E|------------5-5-5-5-5-5-5-5--------------------|

Guitar 2 continued
e|-----------------|
B|-----------------|
G|-----------------|
D|-5-5-5-5-5-5-5-5-|
A|-5-5-5-5-5-5-5-5-|
E|-3-3-3-3-3-3-3-3-|

Guitar 3
e|---10-----9--5-5-7-5---------------------------|
B|---------------------3~~-----------------------|
G|-----------------------------------------------|
D|-----------------------------------------------|
A|-----------------------------------------------|
E|-----------------------------------------------|

 First verse
            (Tremolo Pick entire verse)
e|-----------------------------------------------|
B|-----------------------------------------------|
G|-----------------------------------------------|
D|-----------------------------------------------|
A|-5x24------------------------------------------|
E|-----------------------------------------------|
  Before this world starts up again

e|-----------------------------------------------|
B|-----------------------------------------------|
G|-----------------------------------------------|
D|-----------------------------------------------|
A|-----------------------------------------------|
E|-2x32------------------------------------------|
   It's me and light


e|-----------------------------------------------|
B|-----------------------------------------------|
G|-----------------------------------------------|
D|-----------------------------------------------|
A|-2x16------------------------------------------|
E|--------------------5x16---------3x32----------|
  We wait for the sun,the kids and drunks head
                      back inside
e|-----------------------------------------------|
B|-----------------------------------------------|
G|-----------------------------------------------|
D|-----------------------------------------------|
A|-5x32------------------------------------------|
E|---------------------------------2x32----------|
  Well theres lots of smart ideas in books i've
                            never read
e|-----------------------------------------------|
B|-----------------------------------------------|
G|-----------------------------------------------|
D|-----------------------------------------------|
A|-2x16------------------------------------------|
E|----------------------------5x16----------3x32-|
  When the girls come talk to me I wish to hell I
  had

 Pre-chorus (Tremolo Pick all)
  Guitar 1
e|-----------------------------------------------|
B|-----------------------------------------------|
G|-----------------------------------------------|
D|-----------------------------------------------|
A|-2x16------------------------------------------|
E|----------------5x16---------------------------|
  Get up,Get up,turn on ignition

e|-----------------------------------------------|
B|-----------------------------------------------|
G|-----------------------------------------------|
D|-----------------------------------------------|
A|-5x16------------------------------------------|
E|---------------3x16----------------------------|
  Get up,Get up,fire up the system
e|-----------------------------------------------|
B|-----------------------------------------------|
G|-----------------------------------------------|
D|-----------------------------------------------|
A|-2x16------------------------------------------|
E|----------------5x16-------------3x24----------|
  Play my little part in something big

 Guitar 2
e|--10-----9--5-5-7~~----------------------------|
B|-----------------------------------------------|
G|-----------------------------------------------|
D|-----------------------------------------------|
A|-----------------------------------------------|
E|-----------------------------------------------|
  Guitar 2 is played when it says play my little part in something big

 Chorus
 Guitar 1
e|-----------------------------------------------|
B|-----------------------------------------------|
G|-7-7-7-7-7---------------------7-7-7-7-7-------|
D|-7-7-7-7-7--7-7-7-7-7-7-7-7----7-7-7-7-7-------|
A|-5-5-5-5-5--7-7-7-7-7-7-7-7----5-5-5-5-5-------|
E|------------5-5-5-5-5-5-5-5--------------------|
   I'll accept with poise with grace when they

Continued
e|-----------------|
B|-----------------|
G|-----------------|
D|-5-5-5-5-5-5-5-5-|
A|-5-5-5-5-5-5-5-5-|
E|-3-3-3-3-3-3-3-3-|
  draw my name for the lottery

e|-----------------------------------|
B|-----------------------------------|
G|-7-7-7-7-7-------------------------|
D|-7-7-7-7-7--7-7-7-7-7-7-7-7--5-----|
A|-5-5-5-5-5--7-7-7-7-7-7-7-7--5-----|
E|------------5-5-5-5-5-5-5-5--3-x32-|
  And they'll say "All the salt in the world couldn't melt that ice"

e|-----------------------------------------------|
B|-----------------------------------------------|
G|-7-7-7-7-7----------------------7-7-7-7-7------|
D|-7-7-7-7-7--7-7-7-7-7-7-7-7-----7-7-7-7-7------|
A|-5-5-5-5-5--7-7-7-7-7-7-7-7-----5-5-5-5-5------|
E|------------5-5-5-5-5-5-5-5--------------------|
  I'm the one who gets away,I'm a

 Continued
e|-----------------|
B|-----------------|
G|-----------------|
D|-5-5-5-5-5-5-5-5-|
A|-5-5-5-5-5-5-5-5-|
E|-3-3-3-3-3-3-3-3-|
  New Jersey success story
e|-----------------------------------------------|
B|-----------------------------------------------|
G|-7-7-7-7-7-------------------------------------|
D|-7-7-7-7-7--7-7-7-7-7-7-7-7---5----------------|
A|-5-5-5-5-5--7-7-7-7-7-7-7-7---5----------------|
E|------------5-5-5-5-5-5-5-5---3x32-------------|
  And they'll say "Lord give me the chance to shake that hand"

Guitar 2 (Tremolo Picking through entire chorus)
e|-12x16--14x16--10x16--14x16--12x16--10x16------|
B|-----------------------------------------------|
G|-----------------------------------------------|
D|-----------------------------------------------|
A|-----------------------------------------------|
E|-----------------------------------------------|

 2nd verse (Same as first)

 Pre-chorus

 Chorus

Interlude

e|------------------------------------------------|
B|------------------------------------------------|
G|4-4-4-4-4-4-4-4-----------------7-7-7-7-7-7-7-7-|
D|4-4-4-4-4-4-4-4-7-7-7-7-7-7-7-7-7-7-7-7-7-7-7-7-|
A|2-2-2-2-2-2-2-2-7-7-7-7-7-7-7-7-5-5-5-5-5-5-5-5-|
E|----------------5-5-5-5-5-5-5-5-----------------|
  I have one last wish and it's from my heart
 Continued
e|-----------------|
B|-----------------|
G|-----------------|
D|-5-5-5-5-5-5-5-5-|
A|-5-5-5-5-5-5-5-5-|
E|-3-3-3-3-3-3-3-3-|

e|-----------------------------------------------|
B|-----------------------------------------------|
G|4-4-4-4-4-4-4-4--------------------------------|
D|4-4-4-4-4-4-4-4--7-7-7-7-7-7-7-7---5-----------|
A|2-2-2-2-2-2-2-2--7-7-7-7-7-7-7-7---5-----------|
E|-----------------5-5-5-5-5-5-5-5---3x16--------|
  Just let me down,Just let me down easy

 Chorus

 Outro
  Guitar 1
e|-----------------------------------------------|
B|-----------------------------------------------|
G|--7--------------------------------------------|
D|--7---7---5------------------------------------|
A|--5---7---5(Let Ring)--------------------------|
E|------5---3------------------------------------|

 Guitar 2
e|--10-----9----5-7-5----------------------------|
B|---------------------3~~-----------------------|
G|-----------------------------------------------|
D|-----------------------------------------------|
A|-----------------------------------------------|
E|-----------------------------------------------|

    ~=Vibrato

 Thats the best I've got.At some points you are going to have to listen to the song and 
the timing right.Enjoy!
Tap to rate this tab
# A B C D E F G H I J K L M N O P Q R S T U V W X Y Z