Guitaretab - guitar tabs
Song name
# A B C D E F G H I J K L M N O P Q R S T U V W X Y Z

Jimmy Eat World - Distraction tab

----------------------------------------------------------------------------
		       DISTRACTION - Jimmy Eat World
----------------------------------------------------------------------------
Tabbed by: Chris Colyer
Email: csc501@myway.com

Tuning: Standard

Verse:
e|-----------------------------------------------------------------------|
B|-----------------------------------------------------------------------|
G|-----------------------------------------------------------------------|
D|-----------------------------------------------------------------------|
A|--3-3-3-3-3--3-3-3--3-3-3--3-3-----------------------------------------|
E|-------------------------------4-4-4-4-4--4-4-4--4-4-4--4-4------------|

e|-----------------------------------------------------------------------|
B|-----------------------------------------------------------------------|
G|-----------------------------------------------------------------------|x2
D|-----------------------------------------------------------------------|
A|--1-1-1-1-1--1-1-1--1-1-1--1-1-----------------------------------------|
E|-------------------------------4-4-4-4-4--4-4-4--4-4-4--4-1------------|

Pre-Chorus:
e|--8---6---8---6---8---6---8---6---8---6---8---6--------------------------|
B|-------------------------------------------------------------------------|
G|----5---5---5---5---5---5---5---5---5---5---5---5------------------------|
D|-------------------------------------------------------------------------|
A|-------------------------------------------------------------------------|
E|-------------------------------------------------------------------------|

Chorus:
Run,Slow Down,Run...
e|-----------------------------------------------------------------------|
B|-----------------------------------------------------------------------|
G|--5-5-5-5-5-5-5-5-3-3-3-3-3-3-3-3--5-5-5-5-5-5-5-5-3-3-3-3-3-3-3-3-----|
D|--5-5-5-5-5-5-5-5-3-3-3-3-3-3-3-3--5-5-5-5-5-5-5-5-3-3-3-3-3-3-3-3-----|
A|--3-3-3-3-3-3-3-3-1-1-1-1-1-1-1-1--3-3-3-3-3-3-3-3-1-1-1-1-1-1-1-1-----|
E|-----------------------------------------------------------------------|

e|-----------------------------------------------------------------------|
B|-----------------------------------------------------------------------|
G|-----------------------------------------------------------------------|
D|--5-5-5-5-5-5-5-5-6-6-6-6-6-6-6-6---5-5-5-5-5-5-5-5-6-6-6-6-6-6-6-6----|
A|--5-5-5-5-5-5-5-5-6-6-6-6-6-6-6-6---5-5-5-5-5-5-5-5-6-6-6-6-6-6-6-6----|
E|--3-3-3-3-3-3-3-3-4-4-4-4-4-4-4-4---3-3-3-3-3-3-3-3-4-4-4-4-4-4-4-4----|
Lead
e|-------6-------6-------6----8-6-8----------------------------------------|
B|-----8-------8-------8---------------------------------------------------|
G|---5-------5-------5-----------------------------------------------------|
D|-------------------------------------------------------------------------|
A|-------------------------------------------------------------------------|
E|-------------------------------------------------------------------------|

Repeat Verse, Extra Lead part
e|---------6-----8-6-------------6---8-6-8-------------------------------|
B|-------8-----8---------------8-----------------------------------------|
G|-----5-----5---------------5-------------------------------------------|x2
D|-----------------------------------------------------------------------|
A|-----------------------------------------------------------------------|
E|-----------------------------------------------------------------------|

Pre Chorus:
e|--88--66--88--66--88--66--88--66--88--66--88--66-------------------------|
B|-------------------------------------------------------------------------|
G|----55--55--55--55--55--55--55--55--55--55--55--55-----------------------|
D|-------------------------------------------------------------------------|
A|-------------------------------------------------------------------------|
E|-------------------------------------------------------------------------|
[ Tab from: http://www.guitaretab.com/j/jimmy-eat-world/160840.html ]
Chorus:
Run,Slow Down,Run...
e|-----------------------------------------------------------------------|
B|-----------------------------------------------------------------------|
G|--5-5-5-5-5-5-5-5-3-3-3-3-3-3-3-3--5-5-5-5-5-5-5-5-3-3-3-3-3-3-3-3-----|
D|--5-5-5-5-5-5-5-5-3-3-3-3-3-3-3-3--5-5-5-5-5-5-5-5-3-3-3-3-3-3-3-3-----|
A|--3-3-3-3-3-3-3-3-1-1-1-1-1-1-1-1--3-3-3-3-3-3-3-3-1-1-1-1-1-1-1-1-----|
E|-----------------------------------------------------------------------|

e|-----------------------------------------------------------------------|
B|-----------------------------------------------------------------------|
G|-----------------------------------------------------------------------|
D|--5-5-5-5-5-5-5-5-6-6-6-6-6-6-6-6---5-5-5-5-5-5-5-5-6-6-6-6-6-6-6-6----|x2
A|--5-5-5-5-5-5-5-5-6-6-6-6-6-6-6-6---5-5-5-5-5-5-5-5-6-6-6-6-6-6-6-6----|
E|--3-3-3-3-3-3-3-3-4-4-4-4-4-4-4-4---3-3-3-3-3-3-3-3-4-4-4-4-4-4-4-4----|
Lead
e|-------6-------6-------6----8-6-8------------------------------------------|
B|-----8-------8-------8-----------------------------------------------------|
G|---5-------5-------5-------------------------------------------------------|
D|---------------------------------------------------------------------------|
A|---------------------------------------------------------------------------|
E|---------------------------------------------------------------------------|

Solo
e|-----------------------------------------------------------------------|
B|--8-8-6-7-6-7----8-8-6-7-6-7----8-8-6-7-6-7-----8-8-6-7-6-7------------|
G|-----------------------------------------------------------------------|
D|-----------------------------------------------------------------------|
A|-----------------------------------------------------------------------|
E|-----------------------------------------------------------------------|

e|----8------8-----8-----8-------8---8---8-------------------------------|
B|------7-6----7-6---7-6---7-6----76--76--7------------------------------|
G|-----------------------------------------------------------------------|
D|-----------------------------------------------------------------------|x2
A|-----------------------------------------------------------------------|
E|-----------------------------------------------------------------------|

Chorus:
Run,Slow Down,Run...
e|-----------------------------------------------------------------------|
B|-----------------------------------------------------------------------|
G|--5-5-5-5-5-5-5-5-3-3-3-3-3-3-3-3--5-5-5-5-5-5-5-5-3-3-3-3-3-3-3-3-----|
D|--5-5-5-5-5-5-5-5-3-3-3-3-3-3-3-3--5-5-5-5-5-5-5-5-3-3-3-3-3-3-3-3-----|
A|--3-3-3-3-3-3-3-3-1-1-1-1-1-1-1-1--3-3-3-3-3-3-3-3-1-1-1-1-1-1-1-1-----|
E|-----------------------------------------------------------------------|

e|-----------------------------------------------------------------------|
B|-----------------------------------------------------------------------|
G|-----------------------------------------------------------------------|
D|--5-5-5-5-5-5-5-5-6-6-6-6-6-6-6-6---5-5-5-5-5-5-5-5-6-6-6-6-6-6-6-6----|x4
A|--5-5-5-5-5-5-5-5-6-6-6-6-6-6-6-6---5-5-5-5-5-5-5-5-6-6-6-6-6-6-6-6----|
E|--3-3-3-3-3-3-3-3-4-4-4-4-4-4-4-4---3-3-3-3-3-3-3-3-4-4-4-4-4-4-4-4----|

Lead Plays this for the last two chorus repeats:
e|----------6----------6-----88888888888888888888888888888888------------|
B|---8----6-----8----6---------------------------------------------------|
G|----------3----------3-----55555555555555555555555555555555------------|x2
D|---5----3-----5----3---------------------------------------------------|
A|-----------------------------------------------------------------------|
E|-----------------------------------------------------------------------|

Fade Out
e|--8---|
B|------|
G|--5---|
D|------|
A|------|
E|------|
e|------|

| /  slide up
| \  slide down
| h  hammer-on
| p  pull-off
| ~  vibrato
| +  harmonic
| x  Mute note
============================================================================
Related for Distraction tab
Advertisement will be closed in 10 seconds