Song name
# A B C D E F G H I J K L M N O P Q R S T U V W X Y Z

Jinbara - Kasihnya Laila tab

Artist: Jinbara
Album: ???
Title: Kasihnya Laila
Tabbed by: Gmaster MB/ azz_amit@yahoo.com.my

intro
----------|------------------------|-----------------------------------------------|
----------|------------------------|-----------------------------------------------|
------9-9-|--9-9-11-12h14p12\\11-12-|-12-12-12h14-14-11h12-12-9h11-11-7h9-9-7-11---|
--9-9-----|------------------------|-----------------------------------------------|
----------|------------------------|-----------------------------------------------|
----------|------------------------|-----------------------------------------------|

--------------------------------------------|---------------------------------|
--------------------------------------------|---------------------------------|
11-11-12-12-9h11-11-7h9-9-7-7-11-9h11p9\\7-5-|-9-9-12-12-11-11-9-9-7-7-9-9~---|
--------------------------------------------|---------------------------------|
--------------------------------------------|---------------------------------|
--------------------------------------------|---------------------------------|

verse
buat repeat x1 mggunakan kord;
--7--|--2--|--5--|--3--|--5--|--7--|
--8--|--3--|--7--|--5--|--7--|--8--|
--9--|--4--|--7--|--5--|--7--|--9--|
--9--|--4--|--7--|--5--|--7--|--9--|
--7--|--2--|--5--|--3--|--5--|--7--|
--7--|--2--|-----|-----|-----|--7--|

sterusnya mnggunakan power chord
Tap to rate this tab
 
# A B C D E F G H I J K L M N O P Q R S T U V W X Y Z