Song name
# A B C D E F G H I J K L M N O P Q R S T U V W X Y Z

Jireh Lim - Magkabilang Mundo tab

Kay Kuya Jorell Prospero po tabs it ..
Pinost ko lang po..
eto po yung vid ..
http://www.youtube.com/watch?v=wPGUyZcGBFU

CAPO:1ST FRET



INTRO AND VERSE!
e----------------------------------------------------------------|
B--3--------0-0----3-------0-0------3-------0-0------------------|
G-0--2-2----0-0---0--2-2---0-0----0---2--2--0-0------------------|
D----------------------------------------------------------------|
A-----------------------2------2-----------3----3----------------|
E--------3------3------------------------------------------------|

e----------------------------------------------------------------|
B--------1--0---------3----0-0----3-----0-0----3---0-0-----------|
G-0-2-0-------0-2-2-0---2--0-0---0-2-2--0-0---0----0-0-----------|
D----------------------------------------------------------------|
A---------3-------3-------------------2-----2----3-----3---------|
E------------------------3-----3---------------------------------|

e---------------------3-------------------------------------------|
B-------1--0----------4-------------------------------------------|
G-0-2-0-----0-2-0-0---5-------------------------------------------|
D---------------------5-------------------------------------------|
A--------3----3-------3-------------------------------------------|
E-----------------------------------------------------------------|



CHORUS!

e-----------------------------------------------------------------|
B---------1---0-----------1---0------------3---0-------3--0-------|
G-0-0-2-0-----0---0-0-2-0-----0---0-0---2----------2-0------2--0--|
D---------------0---------------0---------------------------------|
A-------------------------------------------------------3---------|
E-----------3-------3-------2-------2--------0-----0--------------|

e-----------------------------------------------------------------|
B--------1--0-----------1-----0----------3---0-----3-0------------|
G--0-2-0----0---0-0-2-0-------0---0-0--2-------2-0-----2-0---0----|
D-------------0-----------------0--------------------------2------|
A--3-----------------------------------------------3--------------|
E---------3-------3--------2--------2----0-----0------------------|

e----------------------------------|
B-1-0---------1-0------------------|
G-2---2--0-0--0---0--0--2--2---0---|
D-2-----------2--------------------|
A-0-----------3--------------------|
E----------------------------3-----|
Tap to rate this tab
# A B C D E F G H I J K L M N O P Q R S T U V W X Y Z