Song name
# A B C D E F G H I J K L M N O P Q R S T U V W X Y Z

Jj Heller - When Im With You tab

Capo 4


Intro
                           When I..
-------0---------------0---------|
---0-------0-------0-------0-----|
-----1-------1-------1-------1---|
---------------------------------|
---------------------------------|
-0---0---0---0---0---0---0---0---|


Verse 1
..hold you, in my arms love...
-------0-------------------------------0-------------------0---------|
---0-------0-----------3-----------0-------0---0-------0------0------|
-----1-------1-----3-------3---------1-------1---1s2-----2------2----|
---------------------3-------3---------------------------------------|
-----------------------------------------------------0---0---0--0----|
-0---0---0---0---2---2---2---2---4---4---4---4---4-------------------|

                            When I...
-------0---------------0------------|
---0-------0---0---0------0---0-----|
-----1-------1-------1------1-------|
------------------------------------|
------------------------------------|
-0---0---0---0---0---0---0----------|


see you, and you're smilin'....
-------0-------------------------------0-------------------0---------|
---0-------0-----------3-----------0-------0---0-------0------0------|
-----1-------1-----3-------3---------1-------1---1s2-----2------2----|
---------------------3-------3---------------------------------------|
-----------------------------------------------------0---0---0--0----|
-0---0---0---0---2---2---2---2---4---4---4---4---4-------------------|


            You make me believe in love...
-------0-------------------------------0-------------------0------0-0------|
---0-------0-----------3-----------0-------0---0-------0------0-------0-0--|
-----1-------1-----3-------3---------1-------1---1s2-----2------2----------|
---------------------3-------3---------------------------------------------|
-----------------------------------------------------0---0---0--0--0-0-0-0-|
-0---0---0---0---2---2---2---2---4---4---4---4---4-------------------------|





Chorus
I could never count all the ways....
-------0-------------0--------------0--------------------------|
---0-------0------0-------0-----0-------0-----------3----------|
-----1-------1------2-------2-----1-------1-----3------3-------|
--------------------------------------------------3------3-----|
----------------0---0---0---0----------------------------------|
-4---4---4---4----------------0---0---0---0---2---2---2--2-----|

every day the sky is a deeper shade of blue.....When i'm with you.
-------0-------------0--------------0---------------|
---0-------0------0-------0-----0-------0-----3-----|
-----1-------1------2-------2-----1-------1---3-----|
----------------------------------------------------|
----------------0---0---0---0-----------------------|
-4---4---4---4----------------0---0---0---0---2-----|




Verse 2 (Same as verse 1)




Bridge
(intro)
-------0-------------0----------0----5---0-----------2-----------|
---0-------0-----0-------0--------2--------2----2--------2-------|
-----1-------1-----5-------5----------------------3--------3-----|
-----------------------------------------------------------------|
------------------------------0---0----0---0---------------------|
-0---0---0-----4---4---4---4------------------2---2----2---2-----|


   Beautiful baby....
-------0-------------0----------0----5---0-----------2-----------|
---0-------0-----0-------0--------2--------2----2--------2-------|
-----1-------1-----5-------5----------------------3--------3-----|
-----------------------------------------------------------------|
------------------------------0---0----0---0---------------------|
-0---0---0-----4---4---4---4------------------2---2----2---2-----|


Just like the morning...
-------0-------------0----------0----5---0-----------2-----------|
---0-------0-----0-------0--------2--------2----2--------2-------|
-----1-------1-----5-------5----------------------3--------3-----|
-----------------------------------------------------------------|
------------------------------0---0----0---0---------------------|
-0---0---0-----4---4---4---4------------------2---2----2---2-----|


Chorus x2



That's it!!! If you like please rate or comment and if need correct! :)
Thanks! God bless! <3











-
Tap to rate this tab
# A B C D E F G H I J K L M N O P Q R S T U V W X Y Z