Song name
# A B C D E F G H I J K L M N O P Q R S T U V W X Y Z

Jmsn - Something tab

-------------------------------------------------------------------------------
                             Something - JMSN
-------------------------------------------------------------------------------


Tuning: Standard

Intro:

  Em                    Bm  
e|-----------------------------------------|
B|------8---8-8---8--8------7---7-7---7--7-|
G|------9---9-9---9--9------7---7-7---7--7-|
D|--9-9---------9-------9-9---------9------|
A|-----------------------------------------|
E|-----------------------------------------|
  Am                    Am
e|-------------------------------------------|
B|------5---5-5---5--5------5---5-5---5~-----|
G|------5---5-5---5--5------5---5-5---5~-----|
D|--7-7---------7-------7h9---------7----(9)-|
A|-------------------------------------------|
E|-------------------------------------------|


Verse:
Em                       Bm                          Am                 Am
    Happiness is cold at night, but it feels so good.
Em                                Bm                           Am  
    Forget the lies we're stuck inside. Don't let them tell us what we should do. 
          Am  
   (No it doesn't right the wrongs, no matter what you thought.) 
Em                            Bm                          Am                   Am 
    Moving closer towards the light but still so far away. 
Em                           Bm                         Am                   Am
    My loneliness is knit so tight I'm hoping this will change my world. 


Chorus:
        Em                Bm             Am             Am
There's something there inside me and it won't go away. It won't go away. 
             Em                Bm             Am             Am  
Said there's something there inside me and it won't go away. It won't go away


Continue this troughout the whole song
************************************

| h   hammer-on
| ~   vibrato

************************************

http://www.iamjmsn.com/
Tap to rate this tab
# A B C D E F G H I J K L M N O P Q R S T U V W X Y Z