Guitaretab - guitar tabs
Song name
# A B C D E F G H I J K L M N O P Q R S T U V W X Y Z

Joan Jett - Everyone Knows tab

Joan Jett
Sinner

its a really good tune off the album,one of her better ones.
There were a few parts i wasnt too sure about,and i listed them.
This sounds really nice on an acoustic guitar, or a clean electric,switching back & 
between distortion and none.

~ - let ring
* - Palm mute

Rhythm guitar
Intro: (0:03--0:20)

e|------2-3-2------2-3-2------2-3-2------2-3-2----------|
B|----3-------3---3-------3---3------3---3-------3------|
G|--2-----------2-----------2-----------2---------------|
D|------------------------------------------------------|
A|------------------------------------------------------|
E|------------------------------------------------------|

Lead guitar
 Intro (0:10--0:20)
E|------------------------------------------------------------------------------------|
B|------------------------------------------------------------------------------------|
G|------------------------------------------------------------------------------------|
D|-0~----5-4-2-0~----5-4-2-0~----5-4-2-0~----5-4-2-0-~----5-4-2-0~--------------------|
A|------------------------------------------------------------------------------------|
E|------------------------------------------------------------------------------------|

Lead guitar intro cont.
E|-----------------------------------------------------------|
B|-----------------------------------------------------------|
G|-----------------------------------------------------------|
D|--5-4-2-0~----5-4-2-0~----5-4-2-0~----5-4-2-0--------------|
A|-----------------------------------------------------------|
E|-----------------------------------------------------------|

[ Tab from: http://www.guitaretab.com/j/joan-jett/154148.html ]
 Rhythm Guitar
Verse(0:20--0:32)
E|----------------------------------------------------------|
B|----------------------------------------------------------|
G|----------------------------------------------------------|
D|-333333333333333333333333333333---------------------------|
A|-333333333333333333333333333333---------------------------|
E|-555555555555555555555555555555---------------------------|
     *******************************

Lead Guitar
Verse (0:21--0:32)
E|--------------------------------------------|
B|--------------------------------------------|
G|--------------------------------------------|
D|--3-3-3---3-3-3---3-3-3---3-3-3--3----------|
A|--3-3-3---3-3-3---3-3-3---3-3-3--3----------|
E|--5-5-5---5-5-5---5-5-5---5-5-5--5----------|


Lead Guitar & Rhythm Guitar
Chorus( 0:33--0:41)
E|--------------------------------|
B|--------------------------------|
G|-----4-2------4-2-------4-2-----|
D|--3-4-2----3-4-2----3-4-2-------|
A|--3-2-0----3-2-0----3-2-0-------|
E|--5---------5---------5---------|


Lead guitar
Post chorus( 0:41--0:46)
E|------------------------------------------------------------------------------------|
B|------------------------------------------------------------------------------------|
G|------------------------------------------------------------------------------------|
D|-0~----5-4-2-0~----5-4-2-0~----5-4-2-0~----5-4-2-0-~----5-4-2-0~--------------------|
A|------------------------------------------------------------------------------------|
E|------------------------------------------------------------------------------------|

Rhythm guitar
Post chorus(0:41--0:46)

e|------2-3-2------2-3-2------2-3-2------2-3-2----------|
B|----3-------3---3-------3---3------3---3-------3------|
G|--2-----------2-----------2-----------2---------------|
D|------------------------------------------------------|
A|------------------------------------------------------|
E|------------------------------------------------------|

Verse 2
same as verse 1

Chorus 2
Same as chorus 1

Bridge:
Not too sure, but I think itís the same as the Chorus

Solo:
Play the Lead guitar piece as many times as called for,

Verse 3
Same as others

Ending
Lead guitar piece a few times but end on
E|--------|
B|--------|
G|--------|
D|--0~~~|
Related for Everyone Knows tab