Song name
# A B C D E F G H I J K L M N O P Q R S T U V W X Y Z

Joan Jett - Everyday People chords

Highlighted       Show chord diagrams
SONG:   EVERYDAY PEOPLE
ARTIST: JOAN JETT
TAB BY: DON CZARSKI
EMAIL:  GUITARZAN7@HOTMAIL.COM

                 EVERYDAY PEOPLE
          JOAN JETT and THE BLACKHEARTS

INTRO: PLAY 4x's
  
   G(let ring) C  G G
E -3-----------3--3-3-
B -3-----------5--3-3-
G -4-----------5--4-4-
D -5-----------5--5-5-
A -5-----------3--5-5-
E -3-----------3--3-3-

Joan plays the first G as a Downstroke
           the C as an Upstroke and the 
           final 2 G's as Downstrokes.

NOTE: Throughout the entire song the same
      pattern above is played over and over.

VERSE:
 G                   C   G G
Sometimes I'm right then I can be wrong
G               C   G G
My own beliefs are in my songs
   G                 C   G G
A butcher, a banker, a drummer and then
 G                         C   G   G
Makes no difference what group I'm in
G  C GG              G    C  G G
I-I-I-I am everyday people

 G                       C    G G
Then it's the blue ones who cant accept
                       G
The green ones for living with
                 C    G G
The black ones tryin to be a skinny one
  G                 C   G  G
Different strokes for different folks
 G                     C   G G
So on and so on and scooby dooby dooby
 G   C  G G
Ooh sha sha
 G             C  G G
We gotta live together

VERSE:
I am no better and neither are you
We are the same whatever we do
You love me you hate me
You know me and then
Still can't figure out the scene I'm in

I am everyday people

Then it's the new man
That doesn't like the short man
For being such a rich one
That will not help the poor one
Different strokes for different folks
And so on and so on and scooby dooby dooby

Ooh sha sha
We got to live together

BREAK:
GUITAR 1:
                        C G G  F F F  C G G
E -3-3-3--5-5-5--7-7-7--3-3-3--1-1-1--3-3-3--|
B ----------------------5-3-3--1-1-1--5-3-3--|
G ----------------------5-4-4--2-2-2--5-4-4--|
D ----------------------5-5-5--3-3-3--5-5-5--|
A ----------------------3-5-5--3-3-3--3-5-5--|
E ----------------------3-3-3--1-1-1--3-3-3--|


                        C G G  F F F  C C C  C G G
E -3-3-3--5-5-5--7-7-7--3-3-3--1-1-1--3-3-3--3-3-3--|
B ----------------------5-3-3--1-1-1--5-5-5--5-3-3--|
G ----------------------5-4-4--2-2-2--5-5-5--5-4-4--|
D ----------------------5-5-5--3-3-3--5-5-5--5-5-5--|
A ----------------------3-5-5--3-3-3--3-3-3--3-5-5--|
E ----------------------3-3-3--1-1-1--3-3-3--3-3-3--|


GUITAR 2:
E -------------------------------------------|
B -------------------------------------------|
G ---------------4-4-4--5-4-4---------5-4-4--|
D -5-5-5--7-7-7----------------7-7-7---------|
A -------------------------------------------|
E -------------------------------------------|


E -------------------------------------------------|
B -------------------------------------------------|
G --------------4-4-4--5-4-4-----------------------|
D -5-5-5--7-7-7--------------7-7-7--4-4-4---7-5-5--|
A -------------------------------------------------|
E -------------------------------------------------|

VERSE:
There is a yellow one 
that won't accept the black one
That won't accept the red one
That won't accept the white one
Different strokes for different folks
And so on and so on and
Scooby dooby dooby

Ooh sha sha
Tap to rate this tab
# A B C D E F G H I J K L M N O P Q R S T U V W X Y Z