Song name
# A B C D E F G H I J K L M N O P Q R S T U V W X Y Z

Joan Jett - Go Home tab

This is song is one of my favorites & was written by Joan and Kathleen Hanna about the 
rape and murder of Mia Zapata. Hope you enjoy playing it as much as I do. :)Long live 
Joan Jett & íVIVA ZAPATA!

Intro:

e|-------------|
B|-------------|
G|---------3---| x 34
D|---5--7--3---|
A|---5--7--5---|
E|---3--5------|

Chorus:

e|--------------|
B|--------------|
G|---9--7--5----|
D|---9--7--5----|
A|---7--5--3----|
E|--------------|

Solo (you play this over and over):

e|-------------|
B|-------------|
G|---------3---|
D|---5--7--3---|
A|---5--7--5---|
E|---3--5------|
Tap to rate this tab
# A B C D E F G H I J K L M N O P Q R S T U V W X Y Z