Song name
# A B C D E F G H I J K L M N O P Q R S T U V W X Y Z

Joan Osborne - One Of Us tab

---------------------------------------------------------------------------
			     One of us - Joan Osborne
---------------------------------------------------------------------------
intro: (em,c,g,d)

e|-0-2-3------------------------2-3-----------------2-3-----------------|
B|-0-----0-0-0-1-3------------3-0--0-0-0-1-3------3-0--0-0-0-1-3------3-|
G|-------0-0-0-0-0--------0--2-----0-0-0-0-0---0-2-----0-0-0-0-0----0-0-|
D|-------2-0-0----------0---0------2-0-0------0-0------2-0-0-------0----|
A|-----------3--------2----------------3-----2-------------3------2-----|
E|-----0------------3-------------0---------3---------0----------3------|

e|-----------------------------------------------------|
B|-3-3-3-----------------------------------------------|
G|-0-0-2-----------------------------------------------|   2x
D|-----------------------------------------------------|
A|-----------------------------------------------------|
E|-----------------------------------------------------|

verse:

e|------------------------------------------------|
B|------------------------------------------------|
G|-------5-------------7-7-7----------------------| 4x
D|-2-2-2-5---5-5-5-5-5-7-7-7----------------------|
A|-2-2-2-3---5-5-5-5-5-5-5-5----------------------|
E|-0-0-0-----3-3-3-3-3----------------------------|

pre chorus:

e|---------------------------------------------------------|
B|---------------------------------------------------------|
G|-5-5-5-5-5-------7-7------5-5-5-5-5-5-5-5-7-7-7-7-7------|
D|-5-5-5-5-5-5-5-5-7-7--2x--5-5-5-5-5-5-5-5-7-7-7-7-7------|
A|-3-3-3-3-3-5-5-5-5-5------3-3-3-3-3-3-3-3-5-5-5-5-5------|
E|-----------3-3-3-----------------------------------------|

chorus:

e|----------------------------------------------|
B|----------------------------------------------|
G|-----5-5-5----------7-7-7-7-------------------| 4x
D|-2-2-5-5-5--5-5-5-5-7-7-7-7-------------------|
A|-2-2-3-3-3--5-5-5-5-5-5-5-5-------------------|
E|-0-0--------3-3-3-3---------------------------|

verse:

e|------------------------------------------------|
B|------------------------------------------------|
G|-------5-------------7-7-7----------------------| 4x
D|-2-2-2-5---5-5-5-5-5-7-7-7----------------------|
A|-2-2-2-3---5-5-5-5-5-5-5-5----------------------|
E|-0-0-0-----3-3-3-3-3----------------------------|

pre chorus:

e|---------------------------------------------------------|
B|---------------------------------------------------------|
G|-5-5-5-5-5-------7-7------5-5-5-5-5-5-5-5-7-7-7-7-7------|
D|-5-5-5-5-5-5-5-5-7-7--2x--5-5-5-5-5-5-5-5-7-7-7-7-7------|
A|-3-3-3-3-3-5-5-5-5-5------3-3-3-3-3-3-3-3-5-5-5-5-5------|
E|-----------3-3-3-----------------------------------------|

chorus:

e|----------------------------------------------|
B|----------------------------------------------|
G|-----5-5-5----------7-7-7-7-------------------| 4x
D|-2-2-5-5-5--5-5-5-5-7-7-7-7-------------------|
A|-2-2-3-3-3--5-5-5-5-5-5-5-5-------------------|
E|-0-0--------3-3-3-3---------------------------|
Tap to rate this tab
# A B C D E F G H I J K L M N O P Q R S T U V W X Y Z