Guitaretab - guitar tabs
Song name
# A B C D E F G H I J K L M N O P Q R S T U V W X Y Z

Joan Sebastian - Tatuajes tab

TATUAJES.


--INTRO--

     |-------------------x2-------------------|
           C                        D                   C        G
E--------|-3--3--3--3--3--3--3--3-|-2--3--3/5-|---8-7-----|----7-7---------|
B--------|-5--5--5--5--5--5--5--5-|-3--5--5/7-|-------8---|-8--8-8---------|
G------0-|------------------------|-----------|---------9-|-9--------------|
D--------|------------------------|-----------|-----------|----------------|
A--------|------------------------|-----------|-----------|----------------|
E--------|------------------------|-----------|-----------|----------------|


    G              Bm       C
Hiriendo mi felicidad, me alejo
   D                           G
a petición de tu orgullo, me iré
                      Bm     C
aunque eres mi necesidad te dejo
     D                        G
pero eso de que te olvide no sé.


CORO:

    C                   D                G    C G
Tatuajes de tus besos llevo en todo mi cuerpo
    C                         D               G
tatuados sobre el tiempo el tiempo que te conocí
    C                    D                   G
se me hizo vicio ver tus ojos respirar tu aliento
    C                 D         G
me voy pero te llevo dentro de mí.


                        === INTRO X2===


  G                Bm     C
Atendiendo a tu razón me marcho
    D                       G
víctima de un alter ego me voy
                      Bm     C
con otro amor el corazón me parcho
   D                          G
seguro de que te olvide no estoy


CORO:
[ Tab from: http://www.guitaretab.com/j/joan-sebastian/117046.html ]
    C                   D                G    C G
Tatuajes de tus besos llevo en todo mi cuerpo
    C                         D                G
tatuados sobre el tiempo el tiempo que te conocí
    C                    D                   G
se me hizo vicio ver tus ojos respirar tu aliento
    C                 D         G
me voy pero te llevo dentro de mí.

*** Se sostiene el tono G durante un compás y luego otra vez el coro.

    C                   D                G    C G
Tatuajes de tus besos llevo en todo mi cuerpo
    C                         D                G
tatuados sobre el tiempo el tiempo que te conocí
    C                    D                   G
se me hizo vicio ver tus ojos respirar tu aliento
    C                 D         G
me voy pero te llevo dentro de mí
    C                 D            G
me voy pero te llevo dentro... de mí.

*** Para el final, la canción termina con G durante dos compases.
Por allí se escucha un arreglo de trompetas, puedes tocarlo así:

    G              G             G (un rasgueo completo a las seis cuerdas).
E--|--12-10-------|--12-10--------|
B--|--------12-12-|--------12-12--|
G--|--------------|---------------|
D--|--------------|---------------|
A--|--------------|---------------|
E--|--------------|---------------|

*** El arreglo de trompetas también puedes tocarlo así:

    G          G          G (un rasgueo completo a las seis cuerdas).
E--|----------|------------|
B--|----------|------------|
G--|--9-7-----|--9-7-------|
D--|------9-9-|------9-9---|
A--|----------|------------|
E--|----------|------------|

Reescribida por mi Narcizo
Related for Tatuajes tab
Advertisement will be closed in 10 seconds