Song name
# A B C D E F G H I J K L M N O P Q R S T U V W X Y Z

Joanna Newsom - 81 tab

Progression 1

 |Dm           |Bb         |F          |C            |
e|------5---5-------6---6-------5---5-------3---3-----|
B|------6---6-------6---6-------6---6-------5---3-----|
G|--7-----------------------------------5-------------|
D|--------------8-------------------------------------|
A|--------------------------8-------------------------|
E|----------------------------------------------------|

 |Dm           |Bb          |C          |C            |
e|------5---5-------6---6-------3h5-3-------3---3-----|
B|------6---6-------6---6-------5---5-------5---3-----|
G|--7-----------------------5-------------------------|
D|--------------8-------------------------------------|
A|--------------------------------------3-------------|
E|----------------------------------------------------|


Progression 2

 |Dm           |Bb         |F           |C            |
e|------5---5-------6---6-------5---5-------3---3-----|
B|------6---6-------6---6-------6---6-------5---3-----|
G|----------------------------------------------------|
D|--0-------------------------------------------------|
A|--------------------------8-----------3-------------|
E|--------------6-------------------------------------|


 | Dm          |Bb         |Dm            |Dm         |
e|------5---5-------6---6-------10---8----------------|
B|------6---6-------6---6-------10---10----10---------|
G|-----------------------------------------10---------|
D|--0-------------------------------------------------|
A|----------------------------------------------------|
E|--------------6-----------10-------------10---------|


Then (arpeggiated)

Progression 3

|F          |F         |C          |C          |

|Dm         |Bb        |C          |C          |


The rest of the song changes between the chord progressions until just before the end 
the last bar of progression 1 is Bbadd9 instead if Dm. Then progression 2 finishes pff the song.
Tap to rate this tab
# A B C D E F G H I J K L M N O P Q R S T U V W X Y Z