Song name
# A B C D E F G H I J K L M N O P Q R S T U V W X Y Z

Joaquin Rodrigo - Adela tab

ADELA

6ta = C#

<18> = harmonics

-----------|------------|-----------|------------|-----------|
-----------|------------|-----2---2-|-----2-<14>-|-----------|
-----6---6-|-----6-<18>-|-----------|------------|-----6---6-|
---7---7---|---6--------|---4---4---|---3--------|---7---7---|
-----------|------------|-----------|------------|-----------|
-5---------|-3----------|-1---------|-0----------|-5---------|



------------|-----2---2-|-----0------|------0----0-|-----0-<12>-|
------------|-----------|------------|-------------|---0--------|
-----6-<18>-|---2---2---|---6---<18>-|----6---6----|------------|
---6--------|-----------|------------|-------------|------------|
------------|-----------|-0----------|-0-----------|------------|
-3----------|-1---------|------------|-------------|-7----------|



-----0---0-|-----0------|-----------||-------------|-----------|
-----------|------------|-----------||-------------|-----2---2-|
-----------|-------<18>-|-----6---6-||*-----6-<18>-|-----------|
---7---7---|---6--------|---7---7---||*---6--------|---4---4---|
-----------|------------|-----------||-------------|-----------|
-5---------|-3----------|-5---------||--3----------|-1---------|



------------|-----------|------------|-----------|------------|
-----2-<14>-|-----------|------------|-----------|------------|
------------|-----6---6-|-----6-<18>-|-----6---6-|-----6-<18>-|
---3--------|---7---7---|------------|---6---6---|---7--------|
------------|-----------|---8--------|-----------|------------|
-0----------|-5---------|-7----------|-4---------|-5----------|



-----------|------------|-----------|------------|-----------|--------|
-----------|------------|-----------|-----2-<14>-|-----3---3-|-----4--|
-----2---2-|-------<18>-|-----5---5-|------------|-----------|--------|
-----------|-----6------|---4---4---|---3--------|---4---4---|---4----|
---4---4---|---4--------|-----------|------------|-----------|--------|
-5---------|-4----------|-2---------|-0----------|-0---------|-0------|



------------|-------------||------------|-----------|------------|
-----6------|-------------||------------|-----2---2-|-----2-<14>-|
-------<18>-|-----6---6--*||-----6-<18>-|-----------|------------|
---6--------|---7---7----*||---6--------|---4---4---|---3--------|
------------|-------------||------------|-----------|------------|
-0----------|-5-----------||-3----------|-1---------|-0----------|



-----2---2-|------------|-----------|------------|------------||
---3---3---|-----7-<19>-|-----7---7-|-----6------|-----7------||
-----------|---6--------|---5---5---|---4---<18>-|-------<18>-||
-----------|------------|-----------|------------|---7--------||
-2---------|-0----------|-----------|------------|------------||
-----------|------------|-7---------|-0----------|-5----------||

Salut!

NAC 
Tap to rate this tab
# A B C D E F G H I J K L M N O P Q R S T U V W X Y Z