Song name
# A B C D E F G H I J K L M N O P Q R S T U V W X Y Z

Jobim Antonio Carlos - Garota De Ipanema tab

Help us improve GuitareTab! Take a short survey!
Tabbed by: Diogo 'Ghelthon' Costa
Music by: Tom Jobim

This is my first tab, please comment and rate it! ;)

"Olha que coisa mais linda..."
e|----------------------------------------------------------|
B|-3-3--0-0-0---3-3--0-0-0---3-3--0-0-0---3-3--0-0-0---1-1--|
G|------------2------------2------------2------------2------|
D|----------------------------------------------------------|
A|----------------------------------------------------------|
E|----------------------------------------------------------|

e|----------------------------------------------------------|
B|---------0-0----------------------------------------------|
G|-2-2-2-0-----0-0-0---0------------------------------------|
D|-------------------3--------------------------------------|
A|----------------------------------------------------------|
E|----------------------------------------------------------|

"Moa do corpo dourado..."
e|----------------------------------------------------------|
B|-3-3--0-0-0---3-3--0-0-0---3-3--0-0-0---3-3--0-0-0---1-1--|
G|------------2------------2------------2------------2------|
D|----------------------------------------------------------|
A|----------------------------------------------------------|
E|----------------------------------------------------------|

e|----------------------------------------------------------|
B|---------0-0----------------------------------------------|
G|-2-2-2-0-----0-0-0---0------------------------------------|
D|-------------------3--------------------------------------|
A|----------------------------------------------------------|
E|----------------------------------------------------------|

"Ah, porque estou to sozinho"
e|----------------------------------------------------------|
B|-1--2-1---1-----------------------------------------------|
G|--------3---3-1-3-----------------------------------------|
D|----------------------------------------------------------|
A|----------------------------------------------------------|
E|----------------------------------------------------------|

"Ah, porque tudo  to triste"
e|----------------------------------------------------------|
B|-4--5-4---4-----------------------------------------------|
G|--------6---6-4-6-----------------------------------------|
D|----------------------------------------------------------|
A|----------------------------------------------------------|
E|----------------------------------------------------------|

"Ah, e a beleza que existe"
e|----------------------------------------------------------|
B|-5--6-5---5-----------------------------------------------|
G|--------7---7-5-7-----------------------------------------|
D|----------------------------------------------------------|
A|----------------------------------------------------------|
E|----------------------------------------------------------|

"A beleza que no  s minha..."
e|----------------------------------------------------------|
B|-5-6-8-------------5--6-----------------------------------|
G|-------------5-7-8--------------5-6-7---------------------|
D|-------5-7-9--------------5-7-9---------------------------|
A|------------------------8---------------------------------|
E|----------------------------------------------------------|

"Ah, se ela soubesse..."
e|----------------------------------------------------------|
B|-----0-0-0----3-3--0-0-0---3-3--0-0-0---3-3--0-0-0---1-1--|
G|-7-7--------2------------2------------2------------2------|
D|----------------------------------------------------------|
A|----------------------------------------------------------|
E|----------------------------------------------------------|

e|----------------------------------------------------------|
B|---------0-0----------------------------------------------|
G|-2-2-2-0-----0-0-0---0------------------------------------|
D|-------------------3--------------------------------------|
A|----------------------------------------------------------|
E|----------------------------------------------------------|

Enjoy it! :)
Related for Garota De Ipanema tab