Song name
# A B C D E F G H I J K L M N O P Q R S T U V W X Y Z

Joe Anderson - Hey Jude tab

This song is from the beatle's movie across the universe.
It's not the good way to play it but it's alright to play it while the song is playing

enjoy it! 



Tuning: EADGBe

e|---------------------------------------------------------------------------|
B|-----------------------------4--4-3------------------------6-4-3-4---------|
G|--3----------3-5--------------------3-5-3--------3-5-5--5---------5-3------|
D|-----5-----5-----3----3-5-6---------------6-5------------------------------|
A|---------------------------------------------------------------------------|
E|---------------------------------------------------------------------------|X2
									      
e|---------------------------------------------------------------------------|
B|---------------------------------------------------------------------------|
G|--------5-3---3------------------------------------------------------------|
D|----3-5---------6-5--------------------------------------------------------|
A|--6------------------5-6---------------------------------------------------|
E|---------------------------------------------------------------------------|

e|---------------------------------------------------------------------------|
B|-----4--------------4----4-----4-------------------------------------------|
G|---3----6-5-3-3--5----5----------5-3---3--5-3------------------------------|
D|---------------6-----------6---------6--------6-5--------------------------| X2
A|--------------------------------------------------6------------------------|
E|---------------------------------------------------------------------------|

e|---------------------------------------------------------------------------|
B|-------------3-4-6-6-------------------------------------------------------|
G|----3-5-6-6----------------------------------------------------------------|
D|---------------------------------------------------------------------------|
A|--6------------------------------------------------------------------------|
E|---------------------------------------------------------------------------|

e|---------------------------------------------------------------------------|
B|------------------------------4--4-3-----------------------6-4-3-4---------|
G|--3----------3-5--------------------3-5-3--------3-5-5--5---------5-3------|
D|-----5-----5-----3----3-5-6---------------6-5------------------------------|
A|---------------------------------------------------------------------------|
E|---------------------------------------------------------------------------|x2   
              
e|---------------------------------------------------------------------------|
B|---------------------------------------------------------------------------|
G|--------5-3---3------------------------------------------------------------|
D|----3-5---------6-5--------------------------------------------------------|
A|--6------------------5-6---------------------------------------------------|
E|---------------------------------------------------------------------------|


e|---------------------------------------------------------------------------|
B|---------6-4-6-4--6-4-6-4--------------------------------------------------|
G|-------4-------------------6p5-3-------------------------------------------|
D|-----5---------------------------------------------------------------------|  until the end
A|--6------------------------------------------------------------------------|
http://www.joe-anderson.com/
http://en.wikipedia.org/wiki/Across_the_Universe_(film)


Tap to rate this tab
# A B C D E F G H I J K L M N O P Q R S T U V W X Y Z