Song name
# A B C D E F G H I J K L M N O P Q R S T U V W X Y Z

Joe Bonamassa - Blue And Evil tab

Blue and Evil  Joe Bonamassa
Tabbed by The Phills
Standard tuning
h = hammer on
p = pull off

Opening riff - Acoustic
E|----------------------------------------3-3-|
B|----------------------------------------3-3-|
G|-------------------4h5p4---4h5p4---4----3-3-|
D|---0h2-0h2-0-------------7-------7--- 0-----|
A|-------------2------------------------------| x 4
E|-0-------------3-0--------------------------|

Electric
E|----------------------------------------3--|
B|----------------------------------------3--|
G|-------------------4h5p4---4h5p4---4----3--|
D|---0h2-0h2-0-------------7-------7--- 0----|
A|-------------2-----------------------------| x 4
E|-0-------------3-0-------------------------|


Verse
   Em            D  A   Em
E|----------------------------|
B|----------------------------|
G|---------------7------------|
D|-2-----Then----7--7---2-----|
A|-2-------------5--7---2-x 3-|
E|-0----------------5---0-----|

Chorus

E|-----------------------|
B|-----------------------|
G|-9-9-9--9-9-9--7-6-7/9-|
D|-9-9-9--8-8-8--5-5-5/7-|
A|-7-7-7--7-7-7----------| x 3
E|-----------------------|

E|------------------------|
B|------------------------|
G|-9-9-9--9-9-9--76--7---|
D|-9-9-9--8-8-8--55--5---|
A|-7-7-7--7-7-7-----------| x 1
E|------------------------|
Tap to rate this tab
 
# A B C D E F G H I J K L M N O P Q R S T U V W X Y Z