Song name
# A B C D E F G H I J K L M N O P Q R S T U V W X Y Z

Joe Bonamassa - Blue And Evil tab

This is just the basic intro and chorus

main riff

e---------------------------------------------------------|
b---------------------------------------------3b----------|
g----------------------2-4p2-----2-4p2-4------------------|
D---2-2-----------2s/4-------3s/4-------------------------|
A-------2p0-----------------------------------------------|
E-0--------3p0------------------------------0-------------|

Chorus
e------------------------------------|
b------------------------------------|
g---4-4-4--3-3-3---7-6--9-9----------|
D---2-2-2--2-2-2--/5-5-/7-7----------|
A------------------------------------|
E-0-------0------0-------------------|
You can figure the rest out from here
Tap to rate this tab
 
# A B C D E F G H I J K L M N O P Q R S T U V W X Y Z